rock
 
|tablatures   |lyrics   |discussion forums   |more tabs @ XGuitar.com

Muse tabs

Feeling Good bass tab

Artist - Muse
Song - Feeling good
Album - n/a. 
Tabber - Yuffie (musegirl@talk21.com)

Hi people! I'm back! This tab took me an hour, so if its wrong, be kind in your criticisms!
I always get confused when people write "Part A" and so on, so here is the full tab. yay!
Also, I have tabbed this to standard tuning, but you can go down an octave, it might sound better.

g----------------------------------}
d----------------------------------}
a-10---10-8---8-6---6-5--8-5-8-10--} x 2
e----------------------------------}

g----------------------------------------------------------------
d----------------------------------------------------------------
a-10---10-8---8-7---7-6---6-5---5-3---3-1---1-0--0-3-3-3-3-3-4-5-
e----------------------------------------------------------------

g----------------
d----------------
a-10-----10------
e----3--------3--

g-----------------------------}
d---------------------------7-}
a-10---10-8---8-6---6-5---9---} x 2
e-----------------------------}

g-----------------------------------------------
d-8---8-5---5-1---1-----------------0-1---1-0---
a-------------------3---3-1---1---1-------------
e-------------------------------3---------------

g----------------------------------}
d----------------------------------}
a-10---10-8---8-6---6-5--8-5-8-10--} x 2
e----------------------------------}

g------------------------------------------------------------------
d------------------------------------------------------------------
a-10---10-8---8-7---7-6---6-5---5-3---3-1---1-0--0-3---0-------6---
e----------------------------------------------------------1-------

g-----------------------------------
d-----------------------------------
a-5-5-5-5-5-3-5-5-5-5-5-3-5-5-5-5-5-
e-----------------------------------

g----------------------------------}
d----------------------------------}
a-10---10-8---8-6---6-5--8-5-8-10--} x 2
e----------------------------------}

g----------------------------------------------------------------
d----------------------------------------------------------------
a-10---10-8---8-7---7-6---6-5---5-3---3-1---1-0--0-3-3-3-3-3-4-5-
e----------------------------------------------------------------
  development and support by
dmitry ivanov