rock
 
|tablatures   |lyrics   |discussion forums   |more tabs @ XGuitar.com

Muse tabs

Dead Star guitar tab

From: "Chris Moore" 
Subject: m/muse/dead_star.tab
Date: Sun, 19 May 2002 19:42:14 +0100

Muse - Dead Star
Tabbed by Chris Moore (el_toppo@hotmail.com)
This is all my own work

Guitar 1
Intro              harmonic                    harmonic
E|-------------------------|----------------------------|
B|-9-----9-----9---5-5-5-5-|-9-----9-----9--------------|
G|-7-----7-----7-----------|-7-----7-----7--------------|
D|-0-0-0-0-0-0-0-----------|-0-0-0-0-0-0-0-0-0-7-7-7-7--|x3
A|-------------------------|----------------------------|
D|-------------------------|----------------------------|

VERSE

Guitar 1

E|---|
B|---|
G|---| the rhythm isn't too hard
D|-0-| to get, just listen to the song
A|-0-|
D|-0-|

2nd Guitar

E|-----------------------------------|
B|--6---6---6---6---6---6---6---6----|
G|---7-7-7-7-7-7-6-6-6-6-6-6-6-6-6-6-|
D|----7---7---7---7---7---7---7---7--|
A|-----------------------------------|
D|-----------------------------------|

E|-----------------------------------|
B|--6---6---6---6---6---6---6---6----|
G|---5-5-5-5-5-5-5-5-4-4-4-4-4-4-4-4-|
D|----7---7---7---7---6---6---6---6--|
A|-----------------------------------|
D|-----------------------------------|

E|-----------------------------------|
B|--5---5---5---5---5---5---5---5----|
G|---4-4-4-4-4-4-4-4-3-3-3-3-3-3-3-3-|
D|----5---5---5---5---5---5---5---5--|
A|-----------------------------------|
D|-----------------------------------|

E|-----------------------------------|
B|--3---3---3---3---3---3---3---3----|
G|---2-2-2-2-2-2-2-2-2-2-2-2-2-2-2-2-|
D|----3---3---3---3---3---3---3---3--|
A|-----------------------------------|
D|-----------------------------------|

E|-----------------------------------|
B|--6---6---6---6---8---8---8---8----|
G|---7-7-7-7-7-7-7-7-7-7-7-7-7-7-7-7-|
D|----7---7---7---7---8---8---8---8--|
A|-----------------------------------|
D|-----------------------------------|

E|-----------------------------------|
B|--8---8---8---8---8---8---8---8----|
G|---7-7-7-7-7-7-7-7-7-7-7-7-7-7-7-7-|
D|----9---9---9---9---8---8---8---8--|
A|-----------------------------------|
D|-----------------------------------|



E|-----------------------------------|
B|--8---8---8---8---5---5---5---5----|
G|---6-6-6-6-6-6-6-6-5-5-5-5-5-5-5-5-|
D|----8---8---8---8---5---5---5---5--|
A|-----------------------------------|
D|-----------------------------------|

PRECHORUS

guitar 1
E|--------------------------------|
B|--------------------------------|
G|--------------------------------|
D|4-4-4-4-4-4-4-4-4-4-4-4-4-4-4-4-|
A|4-4-4-4-4-4-4-4-4-4-4-4-4-4-4-4-|
D|4-4-4-4-4-4-4-4-4-4-4-4-4-4-4-4-|

CHORUS
Guitar 1

E|--------------------------------|--------------------------------|
B|--------------------------------|--------------------------------|
G|--------------------------------|--------------------------------|
D|5-5-5-5-5-5-5-5---5-5-5-5-5-5-5-|8-8-8-8-8-8-8-8-8-8-8-8-8-8-8-8-|
A|5-5-5-5-5-5-5-5---5-5-5-5-5-5-5-|8-8-8-8-8-8-8-8-8-8-8-8-8-8-8-8-|
D|5-5-5-5-5-5-5-5---5-5-5-5-5-5-5-|8-8-8-8-8-8-8-8-8-8-8-8-8-8-8-8-|

E|--------------------------------|--------------------------------|
B|--------------------------------|--------------------------------|
G|--------------------------------|--------------------------------|
D|3-3-3-3-3-3-3-3-3-3-3-3-3-3-3-3-|7-7-7-7-7-7-7-7-7-7-7-7-7-7-7-7-|
A|3-3-3-3-3-3-3-3-3-3-3-3-3-3-3-3-|7-7-7-7-7-7-7-7-7-7-7-7-7-7-7-7-|
D|3-3-3-3-3-3-3-3-3-3-3-3-3-3-3-3-|7-7-7-7-7-7-7-7-7-7-7-7-7-7-7-7-|

E|--------------------------------|--------------------------------|
B|--------------------------------|--------------------------------|
G|--------------------------------|--------------------------------|
D|8-8-8-8-8-8-8-8-8-8-8-8-8-8-8-8-|3-3-3-3-3-3-3-3-3-3-3-3-3-3-3-3-|
A|8-8-8-8-8-8-8-8-8-8-8-8-8-8-8-8-|3-3-3-3-3-3-3-3-3-3-3-3-3-3-3-3-|
D|8-8-8-8-8-8-8-8-8-8-8-8-8-8-8-8-|3-3-3-3-3-3-3-3-3-3-3-3-3-3-3-3-|

                                    (      this bit x2                )
E|----------------------------------|---------------------------------|
B|----------------------------------|---------------------------------|
G|----------------------------------|---------------------------------|
D|7-7-7-7-7-7-7-7-7-7-7-7-7---------|---------------------------------|
A|7-7-7-7-7-7-7-7-7-7-7-7-7-0-10-11-|12-0-0-12-0-0-12-0-3-5-6-0-10-11-|
D|7-7-7-7-7-7-7-7-7-7-7-7-7-0-10-11-|12-0-0-12-0-0-12-0-3-5-6-0-10-11-|

E|-------------------------|----------------------------|
B|-9-----9-----9---5-5-5-5-|-9-----9-----9--------------|
G|-7-----7-----7-----------|-7-----7-----7--------------|
D|-0-0-0-0-0-0-0-----------|-0-0-0-0-0-0-0-0-0-7-7-7-7--|
A|-------------------------|----------------------------|
D|-------------------------|----------------------------|

E|----------------------------10-0-------------------------------------|
B|---------------------------------------------------------------------|
G|7-0-7-0-7-0-7-0---------7-0------7-0-7-0-7-0-7-0-7-0---------7-0-7-0-|
D|---------------------------------------------------------------------|
A|----------------5-0-5-0------------------------------5-0-5-0---------|
D|---------------------------------------------------------------------|

E|----------------------------11-0--------------------------------------|
B|----------------------------------------------------------------------|
G|8-0-8-0-8-0-8-0---------8-0------8-0-----7/-----------8-0-8-0-8-0-8-0-|
D|----------------------------------------------------------------------|
A|----------------5-0-5-0--------------5-0------------------------------|
D|----------------------------------------------------------------------|

E|--------12-0-12-0-------------------------12-0-------------12-0-12-0-|
B|--------------------------12/--------------------------8-0-----------|
G|9-0-9-0-----------9-0-9-0-----9-0-9-0-9-0------9-0-9-0---------------|
D|---------------------------------------------------------------------|
A|---------------------------------------------------------------------|
D|---------------------------------------------------------------------|

E|-----13-0-13-0------------------------------------------13-----------|
B|--------------------------12/---12---------12/-----------------------|
G|10-0------------10-0-10-0----------10---10---------------------------|
D|------------------------------0-------0------------------------------|
A|-----------------------------------------------5-0-5-0---------------|
D|---------------------------------------------------------------------|

E|---------------------------------|
B|---------------------------------|
G|---------------------------------|
D|---------------------------------|
A|---------------------------------|X2
D|12-0-0-12-0-0-12-0-3-5-6-0-10-11-|

E|---------------------------------|
B|---------------------------------|
G|---------------------------------|
D|---------------------------------|
A|12-0-0-12-0-0-12-0-3-5-6-0-10-11-|X2
D|12-0-0-12-0-0-12-0-3-5-6-0-10-11-|

OUTRO
guitar 1

E|-------------------------|----------------------------|
B|-9-----9-----9---5-5-5-5-|-9-----9-----9-----5-5-5-5--|
G|-7-----7-----7-----------|-7-----7-----7--------------|
D|-0-0-0-0-0-0-0-----------|-0-0-0-0-0-0-0-0-0----------|X2 then |-0-|
A|-------------------------|----------------------------|        |-0-|
D|-------------------------|----------------------------|        |-0-|

Any comments would be great!

  development and support by
dmitry ivanov