rock
 
|tablatures   |lyrics   |discussion forums   |more tabs @ XGuitar.com

Muse tabs

Dead Star bass tab

Artist: Muse
Song: Dead Star
Drop-d tuning

GUITAR INTRO 2 bars

Chorus x4

G|-----------------------------------|
D|-----------------------------------|
A|-5------5-------5----------0-3-4---|
D|---0-0-----0-0-----0-3-4-5---------|

Verse 

x2

G|-----------------------|
D|-----------------------|
A|-----------------------|
D|-0-0-0-0-12-0-0-0-0-0-0|


whole versex4 

A|-----------------------5--------0-3-4-|

D|0-0-0-0-0-0-0-0-0-0-0-0-0-3-4-5-------|

 

Prechorus

G|------------------------|
D|------------------------|
A|------------------------|
D|-4>-5>-8>-3>-7>-8>-3>-7>|

Chorus

D|-0-0-0-0-0-0-0-0-0-0-0-0-etc-|

Guitar Solo bit

Chorus

and that's all there is to it!
  development and support by
dmitry ivanov