rock
 
|tablatures   |lyrics   |discussion forums   |more tabs @ XGuitar.com

Muse tabs

Citizen Erased guitar tab

#----------------------------------PLEASE NOTE--------------------------------#
#This file is the author's own work and represents their interpretation of the#
#song. You may only use this file for private study, scholarship, or research.#
#-----------------------------------------------------------------------------#
#-- File created with Instab - http://www.pconline.com/~smcarey/instab.html --#
#-----------------------------------------------------------------------------#

Author/Artist: Muse
Title: Citizen Erased
Album: the new one
Transcribed by: Steve
Email: Shrininguniverse@hotmail.com

this is only part of this song, i cant get my head round the other bits
This song is played on a seven string guitar down a tone, so the intro and verse riffs dont sound as good on  a six string. if you want to play it on a six string it can be done using the same notes on the second string. use the bridge pickup for best harmonics.

------------------------------------------------------------------------------
------------------------------------------------------------------------------
------------------------------------------------------------------------------
------------------------------------------------------------------------------
------------------------------------------------------------------------------
-0-0-6^-0-6^-0-0-0-6^-6^--6^--------------------------------------------------
 Bottom six  strings, i.e. a,d,g,c,f,a.       play twice                      

------------------------------------------------------------------------------
------------------------------------------------------------------------------
------------------------------------------------------------------------------
------------------------------------------------------------------------------
------------------------------------------------------------------------------
-0-0-3^-0-3^-0-0-0-3^-3^--3^--------------------------------------------------
                             play twice                                       

-------------------------|----------------------------------------------------
-------------------------|----------------------------------------------------
-----9----9--------9-9-9-|-----7----7--------7-7-7----------------------------
-----9----9--------9-9-9-|-----7----7--------7-7-7----------------------------
-----7----7--------7-7-7-|-----5----5--------5-5-5----------------------------
-0-0----0----0-0-0-------|-0-0----0----0-0-0----------------------------------
                                                                              

-------------------------|----------------------------------------------------
-------------------------|----------------------------------------------------
-----5----5--------5-5-5-|-----4----4--------4-4-4----------------------------
-----5----5--------5-5-5-|-----4----4--------4-4-4----------------------------
-----3----3--------3-3-3-|-----2----2--------2-2-2----------------------------
-0-0----0----0-0-0-------|-0-0----0----0-0-0----------------------------------
                                                                              

---|---|---|-----|---|---|---|------------------------------------------------
---|---|---|-----|---|---|---|------------------------------------------------
-5-|---|-4-|---7-|-5-|---|-4-|-4----------------------------------------------
-5-|-5-|-4-|-2-7-|-5-|-5-|-4-|-4----------------------------------------------
-3-|-5-|-2-|-2-5-|-3-|-5-|-2-|-2----------------------------------------------
---|-3-|---|-0---|---|-3-|---|------------------------------------------------
 chorus,   play these chords                                                  

  development and support by
dmitry ivanov