rock
 
|tablatures   |lyrics   |discussion forums   |more tabs @ XGuitar.com

Muse tabs

Cave guitar tab

Author/Artist: Muse
Title: Cave
Album: Showbiz
Transcribed by: Remy Lebbos

------------------------------------------------------------------------------
------------------------------------------------------------------------------
-------------7/-------------7/---------------7/-------------7-----------------
-6-6-6-6-6-6----6-6-6-6-6-6----6-6-6-6-6-6-6----6-6-6-6-6-6-------------------
------------------------------------------------------------------------------
------------------------------------------------------------------------------
                                                                              

------------------------------------------------------------------------------
------------------------------------------------------------6-----------------
-------------9//------------9//-------------9//---------------7---------------
-6-6-6-6-6-6-----6-6-6-6-6-6----6-6-6-6-6-6-----6-6-6-6-6-6-----6-7-----------
------------------------------------------------------------------------------
------------------------------------------------------------------------------
                                                                              

------------------------------------------------------------------------------
-------------6---------------------6---------------------6--------------------
---------------7---------------------7---------------------7------------------
-6-6-6-6-6-6-----6-7---6-6-6-6-6-6-----6-7---6-6-6-6-6-6-----6-7---6-6-6-6-6--
------------------------------------------------------------------------------
------------------------------------------------------------------------------
                                                                              

------------------------13-10-------------------13-10-------------------13----
---6--------9-9-9-9-9-9-------9-10--9-9-9-9-9-9-------9-10--9-9-9-9-9-9-------
-----7------------------------------------------------------------------------
-6-----6-7--------------------------------------------------------------------
------------------------------------------------------------------------------
------------------------------------------------------------------------------
                                                                              

-10---------------------------------------------------------------------------
----9-10----------------------------------------------------------------------
------------------------------------------------------------------------------
------------------------------------------------------------------------------
------------------------------------------------------------------------------
------------------------------------------------------------------------------
                                                                              

Leave me alone it's nothing serious
I値l do it myself
It's got nothing to do with you
------------------------------------------------------------------------------
------------------------------------------------------------------------------
-7----------------------------------------------------------------------------
-7----------------------------------------------------------------------------
-5----------------------------------------------------------------------------
------------------------------------------------------------------------------

And there's nothing that you can do                                                                        

------------------------------------------------------------------------------
------------------------------------------------------------------------------
------------------------------------------------------------------------------
------------------------------------------------------------------------------
-----5-------7-------8-------10------5-------3-------2----6-6-6---------------
-3-3---3-5-5---5-6-6---6-8-8-----3-3---3-1-1---1-0-0---0--6-6-6---------------
                                                                              


------------------------------------------------------------------------------
-------------6---------------------6---------------------6--------------------
---------------7---------------------7---------------------7------------------
-6-6-6-6-6-6-----6-7---6-6-6-6-6-6-----6-7---6-6-6-6-6-6-----6-7---6-6-6-6-6--
------------------------------------------------------------------------------
------------------------------------------------------------------------------

------------------------------------------------------------------------------
---6--------------------------------------------------------------------------
-----7------------------------------------------------------------------------
-6-----6-7--------------------------------------------------------------------
------------------------------------------------------------------------------
------------------------------------------------------------------------------


You can see it and you can almost hear it too
You can almost taste it
It's nothing to do with you

------------------------------------------------------------------------------
------------------------------------------------------------------------------
-7----------------------------------------------------------------------------
-7----------------------------------------------------------------------------
-5----------------------------------------------------------------------------
------------------------------------------------------------------------------

And it's still nothing you can do


------------------------------------------------------------------------------
------------------------------------------------------------------------------
------------------------------------------------------------------------------
------------------------------------------------------------------------------
-----5-------7-------8-------10------5-------3-------2----6-6-6---------------
-3-3---3-5-5---5-6-6---6-8-8-----3-3---3-1-1---1-0-0---0--6-6-6---------------
                                                                              

So come in my cave

-1-1-1-1-1-1-1--2-2-2-2-2-2-2-2-2--3-3-3-3-3-3-3-3-3-3-3-3-3-3-3-3------------
-3-3-3-3-3-3-3--2-2-2-2-2-2-2-2-2--3-3-3-3-3-3-3-3-3-3-3-3-3-3-3-3------------
-2-2-2-2-2-2-2--2-2-2-2-2-2-2-2-2--3-3-3-3-3-3-3-3-3-3-3-3-3-3-3-3------------
-0-0-0-0-0-0-0--4-4-4-4-4-4-4-4-4--5-5-5-5-5-5-5-5-5-5-5-5-5-5-5-5------------
-0-0-0-0-0-0-0--4-4-4-4-4-4-4-4-4--5-5-5-5-5-5-5-5-5-5-5-5-5-5-5-5------------
----------------2-2-2-2-2-2-2-2-2--3-3-3-3-3-3-3-3-3-3-3-3-3-3-3-3------------
                                                                              
And I値l burn your heart away

-1-1-1-1-1-1-1--2-2-2-2-2-2-2-2-2--3-3-3-3-3-3-3-3-3-3-3-3-3-3-3-3------------
-3-3-3-3-3-3-3--2-2-2-2-2-2-2-2-2--3-3-3-3-3-3-3-3-3-3-3-3-3-3-3-3------------
-2-2-2-2-2-2-2--2-2-2-2-2-2-2-2-2--3-3-3-3-3-3-3-3-3-3-3-3-3-3-3-3------------
-0-0-0-0-0-0-0--4-4-4-4-4-4-4-4-4--5-5-5-5-5-5-5-5-5-5-5-5-5-5-5-5------------
-0-0-0-0-0-0-0--4-4-4-4-4-4-4-4-4--5-5-5-5-5-5-5-5-5-5-5-5-5-5-5-5------------
----------------2-2-2-2-2-2-2-2-2--3-3-3-3-3-3-3-3-3-3-3-3-3-3-3-3------------
Come in my cave

-1-1-1-1-1-1-1--2-2-2-2-2-2-2-2-2--3-3-3-3-3-3-3-3-3-3-3-3-3-3-3-3------------
-3-3-3-3-3-3-3--2-2-2-2-2-2-2-2-2--3-3-3-3-3-3-3-3-3-3-3-3-3-3-3-3------------
-2-2-2-2-2-2-2--2-2-2-2-2-2-2-2-2--3-3-3-3-3-3-3-3-3-3-3-3-3-3-3-3------------
-0-0-0-0-0-0-0--4-4-4-4-4-4-4-4-4--5-5-5-5-5-5-5-5-5-5-5-5-5-5-5-5------------
-0-0-0-0-0-0-0--4-4-4-4-4-4-4-4-4--5-5-5-5-5-5-5-5-5-5-5-5-5-5-5-5------------
----------------2-2-2-2-2-2-2-2-2--3-3-3-3-3-3-3-3-3-3-3-3-3-3-3-3------------

I値l burn your heart away

-1-1-1-1-1-1-1--2-2-2-2-2-2-2-2-2--3-3-3-3-3-3-3-3-3-3-3-3-3-3-3-3------------
-3-3-3-3-3-3-3--2-2-2-2-2-2-2-2-2--3-3-3-3-3-3-3-3-3-3-3-3-3-3-3-3------------
-2-2-2-2-2-2-2--2-2-2-2-2-2-2-2-2--3-3-3-3-3-3-3-3-3-3-3-3-3-3-3-3------------
-0-0-0-0-0-0-0--4-4-4-4-4-4-4-4-4--5-5-5-5-5-5-5-5-5-5-5-5-5-5-5-5------------
-0-0-0-0-0-0-0--4-4-4-4-4-4-4-4-4--5-5-5-5-5-5-5-5-5-5-5-5-5-5-5-5------------
----------------2-2-2-2-2-2-2-2-2--3-3-3-3-3-3-3-3-3-3-3-3-3-3-3-3------------


------------------------------------------------------------------------------
------------------------------------------------------------6-----------------
-------------9//------------9//-------------9//---------------7---------------
-6-6-6-6-6-6-----6-6-6-6-6-6----6-6-6-6-6-6-----6-6-6-6-6-6-----6-7-----------
------------------------------------------------------------------------------
------------------------------------------------------------------------------

-------------------------------------------------------13-10-------------------
-------------6---------------------6-------9-9-9-9-9-9-------9-10--9-9-9-9-9-9
---------------7---------------------7----------------------------------------
-6-6-6-6-6-6-----6-7---6-6-6-6-6-6-----6-7------------------------------------
------------------------------------------------------------------------------
------------------------------------------------------------------------------

-13-10------------------------------------------------------------------------
------9-10--------------------------------------------------------------------
------------------------------------------------------------------------------
------------------------------------------------------------------------------
------------------------------------------------------------------------------
------------------------------------------------------------------------------


Please close your ears
And try to look away
So you never hear a single word I say


------------------------------------------------------------------------------
------------------------------------------------------------------------------
-7----------------------------------------------------------------------------
-7----------------------------------------------------------------------------
-5----------------------------------------------------------------------------
------------------------------------------------------------------------------

And don稚 ever come my way


------------------------------------------------------------------------------
------------------------------------------------------------------------------
------------------------------------------------------------------------------
------------------------------------------------------------------------------
-----5-------7-------8-------10------5-------3-------2----6-6-6---------------
-3-3---3-5-5---5-6-6---6-8-8-----3-3---3-1-1---1-0-0---0--6-6-6---------------



------------------------------------------------------------------------------
------------------------------------------------------------------------------
------------------------------------------------------------------------------
---------3--------------------3--------------------3--------------------3-----
-5-5-5-5---5-----3-4--5-5-5-5---5-----3-4--5-5-5-5---5-----3-4--5-5-5-5---5---
-------------3-4------------------3-4------------------3-4--------------------
                                                                              

------------------------------------------------------------------------------
------------------------------------------------------------------------------
-5-7-x-x-5-7-x-x-7------------------------------------------------------------
------------------------------------------------------------------------------
------------------------------------------------------------------------------
------------------------------------------------------------------------------
   

Leave me alone it's nothing serious
I値l do it myself 
It's got nothing to do with you

------------------------------------------------------------------------------
------------------------------------------------------------------------------
-7----------------------------------------------------------------------------
-7----------------------------------------------------------------------------
-5----------------------------------------------------------------------------
------------------------------------------------------------------------------
    
And there's nothing that you can do
                                                                       
------------------------------------------------------------------------------
------------------------------------------------------------------------------
------------------------------------------------------------------------------
------------------------------------------------------------------------------
-----5-------7-------8-------10------5-------3-------2----6-6-6---------------
-3-3---3-5-5---5-6-6---6-8-8-----3-3---3-1-1---1-0-0---0--6-6-6---------------


So come in my cave

-1-1-1-1-1-1-1--2-2-2-2-2-2-2-2-2--3-3-3-3-3-3-3-3-3-3-3-3-3-3-3-3------------
-3-3-3-3-3-3-3--2-2-2-2-2-2-2-2-2--3-3-3-3-3-3-3-3-3-3-3-3-3-3-3-3------------
-2-2-2-2-2-2-2--2-2-2-2-2-2-2-2-2--3-3-3-3-3-3-3-3-3-3-3-3-3-3-3-3------------
-0-0-0-0-0-0-0--4-4-4-4-4-4-4-4-4--5-5-5-5-5-5-5-5-5-5-5-5-5-5-5-5------------
-0-0-0-0-0-0-0--4-4-4-4-4-4-4-4-4--5-5-5-5-5-5-5-5-5-5-5-5-5-5-5-5------------
----------------2-2-2-2-2-2-2-2-2--3-3-3-3-3-3-3-3-3-3-3-3-3-3-3-3------------
                                                                              
And I値l burn your heart away


-1-1-1-1-1-1-1--2-2-2-2-2-2-2-2-2--3-3-3-3-3-3-3-3-3-3-3-3-3-3-3-3------------
-3-3-3-3-3-3-3--2-2-2-2-2-2-2-2-2--3-3-3-3-3-3-3-3-3-3-3-3-3-3-3-3------------
-2-2-2-2-2-2-2--2-2-2-2-2-2-2-2-2--3-3-3-3-3-3-3-3-3-3-3-3-3-3-3-3------------
-0-0-0-0-0-0-0--4-4-4-4-4-4-4-4-4--5-5-5-5-5-5-5-5-5-5-5-5-5-5-5-5------------
-0-0-0-0-0-0-0--4-4-4-4-4-4-4-4-4--5-5-5-5-5-5-5-5-5-5-5-5-5-5-5-5------------
----------------2-2-2-2-2-2-2-2-2--3-3-3-3-3-3-3-3-3-3-3-3-3-3-3-3------------
Come in my cave


-1-1-1-1-1-1-1--2-2-2-2-2-2-2-2-2--3-3-3-3-3-3-3-3-3-3-3-3-3-3-3-3------------
-3-3-3-3-3-3-3--2-2-2-2-2-2-2-2-2--3-3-3-3-3-3-3-3-3-3-3-3-3-3-3-3------------
-2-2-2-2-2-2-2--2-2-2-2-2-2-2-2-2--3-3-3-3-3-3-3-3-3-3-3-3-3-3-3-3------------
-0-0-0-0-0-0-0--4-4-4-4-4-4-4-4-4--5-5-5-5-5-5-5-5-5-5-5-5-5-5-5-5------------
-0-0-0-0-0-0-0--4-4-4-4-4-4-4-4-4--5-5-5-5-5-5-5-5-5-5-5-5-5-5-5-5------------
----------------2-2-2-2-2-2-2-2-2--3-3-3-3-3-3-3-3-3-3-3-3-3-3-3-3------------

And arrest me from my escape 

-1-1-1-1-1-1-1--2-2-2-2-2-2-2-2-2--3-3-3-3-3-3-3-3-3-3-3-3-3-3-3-3------------
-3-3-3-3-3-3-3--2-2-2-2-2-2-2-2-2--3-3-3-3-3-3-3-3-3-3-3-3-3-3-3-3------------
-2-2-2-2-2-2-2--2-2-2-2-2-2-2-2-2--3-3-3-3-3-3-3-3-3-3-3-3-3-3-3-3------------
-0-0-0-0-0-0-0--4-4-4-4-4-4-4-4-4--5-5-5-5-5-5-5-5-5-5-5-5-5-5-5-5------------
-0-0-0-0-0-0-0--4-4-4-4-4-4-4-4-4--5-5-5-5-5-5-5-5-5-5-5-5-5-5-5-5------------
----------------2-2-2-2-2-2-2-2-2--3-3-3-3-3-3-3-3-3-3-3-3-3-3-3-3------------



------------------------------------------------------------------------------
------------------------------------------------------------------------------
-7----------------------------------------------------------------------------
-7----------------------------------------------------------------------------
-5----------------------------------------------------------------------------
------------------------------------------------------------------------------

Piano....    

SOLOS


------------------------------------------------------------------------------
------------------------------------------------------------------------------
-7-7-7-7-7-7-7-7-7-7-7-7-9-7-9-7-9v-9-7-11-11--9-7-6-x-5-x-4------------------
------------------------------------------------------------------------------
------------------------------------------------------------------------------
------------------------------------------------------------------------------
                                                                              

------------------------------------------------------------------------------
----------------------------------17/17/17/17---------------------------------
-7-7-7-7-7-7-7-7-7-7-7-7-9-7-9-7--------------11-11-9-7-6-x-5-x-4---7---------
--------------------------------------------------------------------7---------
--------------------------------------------------------------------5---------
------------------------------------------------------------------------------
                                                                              

  development and support by
dmitry ivanov