rock
 
|tablatures   |lyrics   |discussion forums   |more tabs @ XGuitar.com

Muse tabs

Butterflies And Hurricanes guitar tab

Artist: Muse
Track: Butterflies and Hurricanes Live
Album: Absolution


Another great new song from Muse. The album version is all piano but live Matt plays it 
on the guitar and it sounds great.


The intro is just the bass tapping on and off the 12th fret on the higher D string.
Then the guitar comes in when Matt starts singing.

Light distortion, played quietly.

E|-------------------------------------------------------|
B|-------------------------------------------------------|
G|-------------------------------------------------------|
D|-------------------------------------------------------|
A|-17-x16--16-x16--15-x16-14-x16--13-x16--12-11-10-9-8-7-|
E|-0-------0-------0------0-------0-------12-11-10-9-8-7-|


E|-------------------------------------------------------|
B|-------------------------------------------------------|
G|-------------------------------------------------------|
D|----6------2------7-----8----11------------------------|
A|----6-x16--2-x16--7-x8--7-x8-7--x16--------------------|
E|----6------2------7-----7----7-------------------------| Play both lines twice.


When Matt sings \"Best\" switch to this.


E|-------------------------------------------------------|
B|-------------------------------------------------------|
G|--------7-------------7--------------------------------|
D|-8------7------8------7------8------3------7-----8-----|
A|-8-x16--8-x16--8-x16--8-x16--8-x16--3-x16--4-x16-5-x16-|
E|-8------0------8------0------8------3------4-----5-----|

Start this on \"Your time is now\".


E|-----------------------------------------------------------|
B|-----------------------------------------------------------|
G|-----------------------------------------------------------|
D|-8------3------8------3------7-----------------------------|
A|-8-x16--3-x16--8-x16--3-x16--7--------Let Ring-------------|
E|-8------3------8------3------7-----------------------------|

Loud Distortion kicks in now


E|----------------------------------------|
B|----------------------------------------|
G|----------------------------------------|
D|-7-x-14-x-11-x-8-x-5-x-8----------------|
A|-7-x-14-x-11-x-8-x-5-x-8--x2------------|
E|-7-x-14-x-11-x-8-x-5-x-8----------------|

Now play from the start again but with loud disortion.

Thats pretty much it really, Matt does some improvisation before the piano 
solo that I cant remember, but apart from that this is it.
  development and support by
dmitry ivanov