rock
 
|tablatures   |lyrics   |discussion forums   |more tabs @ XGuitar.com

Muse tabs

Bliss bass tab

Author/Artist: Muse
Title: Bliss (Bass Part)
Transcribed by: Rob
Email: Milleniumhog@yahoo.com

Quite easy, but watch for rhythmic variations.

-|----------------------------------------------------------------------------
-|----------------------------------------------------------------------------
-|----------------------------------------------------------------------------
-|--10--10--10--10--8--88--8----8--88--9-10-------------10--------10----------
-|----------------------------8-------------8--8--8--8------------------------
-|---------------------------------------------------------88-8-8----88-10-11-
                                                                              

--------------------------------------------------------------|---------------
--------------------------------------------------------------|---------------
----------------------------------------------------------3-4-|---------------
-------------3---------3-----------------------------5--------|---------------
--------------------------------3--3--3--3--6-33-3-3---66-----|---------------
-6--6--6--6\----11-1-1---11-3-4-------------------------------|---------------
             That's the verse.                                                

------------------------------------------------------------------------------
------------------------------------------------------------------------------
-------10--10--10--10--7--7--7--7---------------------------------------------
-----------------------------------10--10--10--10--10--10--10--10-\-----------
------------------------------------------------------------------------------
------------------------------------------------------------------------------
                                                                              

------------------------------------------------------------------------------
------------------------------------------------------------------------------
------------------------------------------------------------------------------
------------------------------------------------------------------------------
---\3--3--3--3--0--0--0--0----------------------------------------------------
----------------------------0--0--0--0--0--0--0--0----------------------------
                                                                              

------------------------------------------------------------------------------
------------------------------------------------------------------------------
------------------------------------------------------------------------------
------10-10-10-10-10-10-10-10-7-7-7-7-7-7-7-7---------------------------------
----------------------------------------------10-10-10-10-10-10-10-10-\-------
------------------------------------------------------------------------------
                                                                              

------------------------------------------------------------------------------
------------------------------------------------------------------------------
------------------------------------------------------------------------------
-------------------------------------2-2-2-2-2-2-2-2-2-2-2-2-2----------------
--\--3-3-3-3-3-3-3-3-0-0-0-0-0-0-0-0------------------------------------------
------------------------------------------------------------------------------
     ...And that's the chorus. Let the last note ring as you go back to the   

------------------------------------------------------------------------------
------------------------------------------------------------------------------
------------------------------------------------------------------------------
------------------------------------------------------------------------------
------------------------------------------------------------------------------
------------------------------------------------------------------------------
 verse. The order is this: Intro (No Bass), verse x4, chorus x1, verse x3,    

------------------------------------------------------------------------------
------------------------------------------------------------------------------
----------3-4-----------------------------------------------------------------
------------------------------------------------------------------------------
--------------3---------------------------------------------------------------
------------------------------------------------------------------------------
 chorus x1, verse x2, end. End as above, letting last note ring and fade.
  development and support by
dmitry ivanov