rock
 
|tablatures   |lyrics   |discussion forums   |more tabs @ XGuitar.com

Muse tabs

Blackout guitar tab

Blackout

standard tuning
every note in this song is tremolo picking and there are slides between them

intro/verse:clean
|------------------------------|
|------------------------------|
|-3-7-2-7-0-8-6-3-7-2-7-0-8-5--|
|------------------------------|
|------------------------------|
|------------------------------|

Outro: with extreme amounts of distrotion and compressor
|--------------------------------------------------------------------|
|-----------------------------------------15-16-18-19-20-22-20-19-15-|
|-3-7-2-7-0-8-6-3-7-2-7-0-8-5-12-14-15-17----------------------------|
|--------------------------------------------------------------------|
|--------------------------------------------------------------------|
|--------------------------------------------------------------------|

|--------------------------------------------------------------------|
|-----------------------------------------------------15-16-18-------|
|-----------------------------------------12-14-15-17----------------|
|-8-12-7-12-5-13-7-10-8-12-7-12-5-13-7-10----------------------------|
|--------------------------------------------------------------------|
|--------------------------------------------------------------------|

|--------------------------------------------------------------------|
|--19-20-22-20-15-15-15----------------------------------------------|
|--------------------------------------------------------------------|
|--------------------------------------------------------------------|
|--------------------------------------------------------------------|
|--------------------------------------------------------------------|
  development and support by
dmitry ivanov