rock
 
|tablatures   |lyrics   |discussion forums   |more tabs @ XGuitar.com

Muse tabs

Blackout bass tab

Band - Muse
Song - Blackout
Album - Absolution (2003)
Bassist - Chris Wolstenholme
Tuning - Drop D

Intro starts off with only violin.
Bass enters at 00:12

G--------------------------
D--------------------------
A--1~----0~----------------
D--------------5~----3~----

G--------------------------
D--------------------------
A--1~----5~----6~----8~----
D--------------------------

Verse
G--------------------------
D--------------------------
A--1~----0~----------------
D--------------5~----3~----

G--------------------------
D--------------------------
A--1~----5~----6~----8~----
D--------------------------

Chorus
G--------------------------
D--------------------------
A--10--8--6--6--5--6--5--3-
D--------------------------

Verse - x1
Chrus - x1

Rest
G-------------
D-------------
A--1~~~-------
D-------------

Drum bit

Solo
G--------------------------
D--------------------------
A--1~----0~----------------
D--------------5~----3~----

G--------------------------
D--------------------------
A--1~----5~----6~----8~----
D--------------------------

G--------------------------------
D--------------------------------
A--10--8--6--6--5--6--5--3/15//1-
D--------------------------------

Verse

Chorus
G----------------------------------
D----------------------------------
A--10--8--6--6--5--6--5--3-/-/-/-/-   Improvise a little here with the slide!
D----------------------------------

Outro
G--------------
D--------------
A--1~~~--------
D--------------

I chose an easy song for my first tab so go easy.

---------------MUSE ROK---------------
  development and support by
dmitry ivanov