rock
 
|tablatures   |lyrics   |discussion forums   |more tabs @ XGuitar.com

Muse tabs

Apocalypse Please guitar tab

band: muse
song: apocalypse please
album: absolution, track #2
tabbed by: laura
tuning: standard

==============================================

CHORDS USED

F#m/C#  C#   F#m   D/F#  E/G#   Eaug/G#  Amaj   
|-2-----4----2-----2-----X------X--------5------|
|-2-----6----2-----3-----5------5--------5------|
|-2-----6----2-----2-----4------5--------6------|
|-4-----6----4-----4-----2------2--------7------|
|-4-----4----4-----5-----X------X--------7------|
|------------2-----2-----4------4--------5------|

====================================================

INTRO
the chords used here are 

F#m/C#   C#   F#m/C#   C#

====================================================

VERSE 

\"declare...\"

F#m/C#   C#   F#m/C#   C#

F#m   C#   F#m   C#

====================================================

CHORUS 

\"this is the end...\"

F#m   D/F#   E/G#   Eaug/G#   Amaj


\"world.....\" he stretches the word out over about 5 bars or so

C#   Amaj   C#

=====================================================

VERSE

\"and its time, we saw a miracle...\"

same as before

======================================================

CHORUS

same as before

======================================================

BRIDGE

chords used here:

C#sus4  D    Bm7   Cdim7  C#5   D5    B5   F#5
                                           
|-4-----2----2-----X------X-----X-----X----X----|
|-7-----3----3-----4------X-----X-----X----X----|
|-6-----2----2-----2------X-----X-----X----X----|
|-6-----4----4-----4------6-----7-----4----4----|
|-4-----5----2-----3------4-----5-----2----4----|
|-X-----X----X-----X------X-----X-----X----2----|

C#sus4   C#   F#m   D

C#sus4   C#   F#m   D

Bm7   

=======================================================

INTRO
played as before

========================================================

VERSE

\"proclaim eternal victory...\"

same as before

========================================================

CHORUS

same as before

========================================================

BRIDGE / OUTRO

same as before with an extra bit added on the end..

C#5   F#m/C#   C#5   F#m

D5   B5   C#5   F#5

========================================================

thats all accurate i think. awkward chords at first but practise makes perfect.

any corrections or comments send to poisonedheartswillneverchange@hotmail.com
  development and support by
dmitry ivanov