rock
 
|tablatures   |lyrics   |discussion forums   |more tabs @ XGuitar.com

Muse tabs

Apocalypse Please bass tab

Apocalypse Please


                              Mattew Bellamy, Dominic Howard, Chris Wolstenholme
Chris Wolstenholme Bass




G||------------------|------------------|------------------|------------------|
D||------------------|------------------|------------------|------------------|
A||------------------|------------------|------------------|------------------|
D||------------------|------------------|------------------|------------------|



------------------|------------------|------------------|------------------|
------------------|------------------|------------------|------------------|
------------------|------------------|------------------|------------------|
------------------|------------------|------------------|------------------|



------------------|------------------|------------------|------------------|
------------------|------------------|------------------|------------------|
------------------|------------------|------------------|------------------|
------------------|------------------|------------------|------------------|



------------------|--------------------|-----------------------|
------------------|--------------------|-----------------------|
------------------|--------------------|-----------------------|
------------------|--------------16/---|--4--4----4----4----4/-|



----------------------------|-----------------------|
----------------------------|-----------------------|
----------------------------|-----------------------|
--11--11----11----11----11--|--4--4----4----4----4/-|



----------------------------|----------------------------------|
----------------------------|----------------------------------|
----------------------------|----------------------------------|
--11--11----11----11----11--|--4-4-4-4-4-4-4-4-4-4-4-4-4-4-4-4-|



----------------------------------|----------------------------------|
----------------------------------|----------------------------------|
----------------------------------|----------------------------------|
--4-4-4-4-4-4-4-4-4-4-4-4-4-4-4-4-|--6-6-6-6-6-6-6-6-6-6-6-6-6-6-6-6-|



----------------------------------|----------------------------------|
----------------------------------|----------------------------------|
----------------------------------|----------------------------------|
--7-7-7-7-7-7-7-7-7-7-7-7-7-7-7-7/|--4-4-4-4-4-4-4-4-4-4-4-4-4-4-4-4/|



----------------------------------|----------------------------------|
----------------------------------|----------------------------------|
----------------------------------|----------------------------------|
--7-7-7-7-7-7-7-7-7-7-7-7-7-7-7-7-|--4-4-4-4-4-4-4-4-4-4-4-4-4-4-4-4-|



----------------------------------|------------------|------------------|
----------------------------------|------------------|------------------|
----------------------------------|------------------|------------------|
--4-4-4-4-4-4-4-4-4-4-4-4-4-4-4-4-|------------------|------------------|



------------------|--------------------|-----------------------|
------------------|--------------------|-----------------------|
------------------|--------------------|-----------------------|
------------------|--------------16/---|--4--4----4----4----4/-|



----------------------------|-----------------------|
----------------------------|-----------------------|
----------------------------|-----------------------|
--11--11----11----11----11--|--4--4----4----4----4/-|



----------------------------|----------------------------------|
----------------------------|----------------------------------|
----------------------------|----------------------------------|
--11--11----11----11----11--|--4-4-4-4-4-4-4-4-4-4-4-4-4-4-4-4-|



----------------------------------|----------------------------------|
----------------------------------|----------------------------------|
----------------------------------|----------------------------------|
--4-4-4-4-4-4-4-4-4-4-4-4-4-4-4-4-|--6-6-6-6-6-6-6-6-6-6-6-6-6-6-6-6-|



----------------------------------|----------------------------------|
----------------------------------|----------------------------------|
----------------------------------|----------------------------------|
--7-7-7-7-7-7-7-7-7-7-7-7-7-7-7-7/|--4-4-4-4-4-4-4-4-4-4-4-4-4-4-4-4/|



----------------------------------|----------------------------------|
----------------------------------|----------------------------------|
----------------------------------|----------------------------------|
--7-7-7-7-7-7-7-7-7-7-7-7-7-7-7-7-|--4-4-4-4-4-4-4-4-4-4-4-4-4-4-4-4-|



----------------------------------|------6-6-----6-6-----6-6-----6-6-|
----------------------------------|----------------------------------|
----------------------------------|--4-4-----4-4-----4-4-----4-4-----|
--4-4-4-4-4-4-4-4-4-4-4-4-4-4-4-4-|----------------------------------|



------6-6-----6-6-----6-6-----6-6-|------11-11-----11-11-----11-11-----11-11-|
----------------------------------|------------------------------------------|
--4-4-----4-4-----4-4-----4-4-----|--9-9-------9-9-------9-9-------9-9-------|
----------------------------------|------------------------------------------|



------7-7-----7-7-----7-7-----7-7-|------6-6-----6-6-----6-6-----6-6-|
----------------------------------|----------------------------------|
--5-5-----5-5-----5-5-----5-5-----|--4-4-----4-4-----4-4-----4-4-----|
----------------------------------|----------------------------------|



------6-6-----6-6-----6-6-----6-6-|------11-11-----11-11-----11-11-----11-11-|
----------------------------------|------------------------------------------|
--4-4-----4-4-----4-4-----4-4-----|--9-9-------9-9-------9-9-------9-9-------|
----------------------------------|------------------------------------------|



------7-7-----7-7-----7-7-----7-7-|------4-4-----4-4-----4-4-----4-4-|
----------------------------------|----------------------------------|
--5-5-----5-5-----5-5-----5-5-----|--2-2-----2-2-----2-2-----2-2-----|
----------------------------------|----------------------------------|



------4-4-----4-4-----4-4-----4-4-|------------------|------------------|
----------------------------------|------------------|------------------|
--2-2-----2-2-----2-2-----2-2-----|------------------|------------------|
----------------------------------|------------------|------------------|



------------------|------------------|------------------|--------------------|
------------------|------------------|------------------|--------------------|
------------------|------------------|------------------|--------------------|
------------------|------------------|------------------|--------------16/---|



-----------------------|----------------------------|-----------------------|
-----------------------|----------------------------|-----------------------|
-----------------------|----------------------------|-----------------------|
--4--4----4----4----4/-|--11--11----11----11----11--|--4--4----4----4----4/-|



----------------------------|----------------------------------|
----------------------------|----------------------------------|
----------------------------|----------------------------------|
--11--11----11----11----11--|--4-4-4-4-4-4-4-4-4-4-4-4-4-4-4-4-|



----------------------------------|----------------------------------|
----------------------------------|----------------------------------|
----------------------------------|----------------------------------|
--4-4-4-4-4-4-4-4-4-4-4-4-4-4-4-4-|--6-6-6-6-6-6-6-6-6-6-6-6-6-6-6-6-|



----------------------------------|----------------------------------|
----------------------------------|----------------------------------|
----------------------------------|----------------------------------|
--7-7-7-7-7-7-7-7-7-7-7-7-7-7-7-7/|--4-4-4-4-4-4-4-4-4-4-4-4-4-4-4-4/|



----------------------------------|----------------------------------|
----------------------------------|----------------------------------|
----------------------------------|----------------------------------|
--7-7-7-7-7-7-7-7-7-7-7-7-7-7-7-7-|--4-4-4-4-4-4-4-4-4-4-4-4-4-4-4-4-|



----------------------------------|------6-6-----6-6-----6-6-----6-6-|
----------------------------------|----------------------------------|
----------------------------------|--4-4-----4-4-----4-4-----4-4-----|
--4-4-4-4-4-4-4-4-4-4-4-4-4-4-4-4-|----------------------------------|



------6-6-----6-6-----6-6-----6-6-|------11-11-----11-11-----11-11-----11-11-|
----------------------------------|------------------------------------------|
--4-4-----4-4-----4-4-----4-4-----|--9-9-------9-9-------9-9-------9-9-------|
----------------------------------|------------------------------------------|



------7-7-----7-7-----7-7-----7-7-|------6-6-----6-6-----6-6-----6-6-|
----------------------------------|----------------------------------|
--5-5-----5-5-----5-5-----5-5-----|--4-4-----4-4-----4-4-----4-4-----|
----------------------------------|----------------------------------|



------6-6-----6-6-----6-6-----6-6-|------11-11-----11-11-----11-11-----11-11-|
----------------------------------|------------------------------------------|
--4-4-----4-4-----4-4-----4-4-----|--9-9-------9-9-------9-9-------9-9-------|
----------------------------------|------------------------------------------|



------7-7-----7-7-----7-7-----7-7-|------6-6-----6-6-----6-6-----6-6-|
----------------------------------|----------------------------------|
--5-5-----5-5-----5-5-----5-5-----|--4-4-----4-4-----4-4-----4-4-----|
----------------------------------|----------------------------------|



------4-4-----4-4-----4-4-----4-4-|-------------------|-------------------|
----------------------------------|-------------------|-------------------|
--2-2-----2-2-----2-2-----2-2-----|--4----------------|--4----------------|
----------------------------------|-------------------|-------------------|



-------------------|-------------------|-------------------|-------------------|
-------------------|-------------------|-------------------|-------------------|
--4----------------|-------------------|--5----------------|--2----------------|
-------------------|--4----------------|-------------------|-------------------|



-------------------|-------------------|------------------|------------------||
-------------------|-------------------|------------------|------------------||
--4----------------|-------------------|------------------|------------------||
-------------------|--4----------------|------------------|------------------||
  development and support by
dmitry ivanov