rock
 
|tablatures   |lyrics   |discussion forums   |more tabs @ XGuitar.com

Muse tabs

Agitated guitar tab

Date: Wed, 14 Mar 2001 10:48:57 -0500
From: "Andrew Morrison" 
Subject: m/muse/agitated.crd

Artist: Muse
Song: Agitated
Album: B-Side of the single Uno
Tabbed By Andy Morrison

This song was tabbed from the single Uno. It's a great track
and is easy to play, its mostly dropped D powerchords
throughout.


Legend

/ Slide up
\ Slide down
p Pull-off
X Percussive mute


Intro/Verse 1

E---9--9-------------- |
B---10-10------------- |
G---10-10------------- |
D---9--9--X-X-X-X-X-X- |
A---9--9--X-X-X-X-X-X- |
D---9--9--X-X-X-X-X-X- |

The strumming pattern of the muted notes changes with
each playing of Verse 1 so listen for it.

Slighty mute the chords with the left hand,
to allow some of the open chord to sound
through.

Verse 2

E---9--9------------------ |
B---10-10----------------- |
G---10-10----------------- |
D---9--9-p0/5/6-6-6-7-7p0- |
A---9--9-p0/5/6-6-6-7-7p0- |
D---9--9-p0/5/6-6-6-7-7p0- |

If you have two guitarists in your midst,
you could try playing the verse 1 and verse 3
simulatiously rather than playing verse 2

Verse 3

E---------------------- |
B---------------------- |
G---------------------- |
D---0-0-/5/6-6-6-7-7p0- |
A---0-0-/5/6-6-6-7-7p0- |
D---0-0-/5/6-6-6-7-7p0- |


Chorus

E-------------------- |
B-------------------- |
G-------------------- |
D---5----4----3----2- |
A---5----4----3----2- |
D---5----4----3----2- |

Outro
                              x3                  x13
E---9--9--9--9--9--9--9--9--9--9-- | -9-------------- | -9---\0- |
B---10-10-10-10-10-10-10-10-10-10- | -10------------- | -10--\0- |
G---10-10-10-10-10-10-10-10-10-10- | -10------------- | -10--\0- |
D---9--9--9--9--9--9--9--9--9--9-- | -9-p0-5-0-6-0-7- | -9---\0- |
A---9--9--9--9--9--9--9--9--9--9-- | -9-p0-5-0-6-0-7- | -9---\0- |
D---9--9--9--9--9--9--9--9--9--9-- | -9-p0-5-0-6-0-7- | -9---\0- |

Don't allow the chords of the first part of the outro to ring.


This riff is can be heard on the
first part of the Outro.

Riff

G----------------------19-22- |
D----------------14-16------- |
A---------11-13-------------- |
D---13-15-------------------- |

Song Structure

| Intro/Verse 1 x5 | Verse 2 x12 | Verse 1 x4 | Verse 2 x4 |

| Verse 3 x4 | Chorus x2 | verse 1 x5 | Verse 2 x12 |

| Verse 1 x4 | Verse 2 x4 | Verse 3 x4 | Chorus x2 | Outro |
  development and support by
dmitry ivanov