rock
 
|tablatures   |lyrics   |discussion forums   |more tabs @ XGuitar.com

Muse tabs

Agitated bass tab

MUSE / Agitated
Tabbed by Jack Davis

Drop D Tuning
Intro:   x8
G / -----------------------
D / -----------------------
A / ---55------------------
D / -----------------------

Verse:     x20
G / ---------------------
D / ---------------------
A / --55-----------------
D / -----44-55-77--------

Chorus:      x2
G / -------------------------------------
D / -------------------------------------
A / ------5-------5------5-------5-------
D / --555--5--444--4--333--3--222--2-----

Intro     x8
Verse     x20
Chorus    x2

Bridge:
G / -------------
D / -------------             Play quite quick
A / -------------
D / --12p0-------              Play note x32

Pre Ending:       x2
G / ----------------
D / ----------------
A / ----------------
D / ----00-4h3-0----

Ending:       x8
G / ----------------------
D / ----------------------
A / --5555555-------------
D / -----------00-4-0-0---

END
  development and support by
dmitry ivanov