rock
 
|tablatures   |lyrics   |discussion forums   |more tabs @ XGuitar.com

Metallica tabs

Tuesday's Gone guitar tab

 Tabs for

                              "Tuesday's Gone"

 Tuesday's Gone
 written by Lynyrd Skynyrd
 as performed live on the radio "Don't Call Us We'll Call You"
 by Metallica and friends
 tab by Phil Boyle; phil@encycmet.com

 Accoustic performance;
 tune all guitars down 1/2 step

 eb--0--0--2--3---0--0--2
 Bb--2--0--2--2---2--0--3
 Gb--2--1--2--3---2--1--2
 Db--2--2--4--0---2--2--0
 Ab--0--2--4------0--2---
 Eb-----0--2---------0---
 intro and verse
 "Train rolls on, on down the line.  Please take me far, far away."
 Rhythm is strummed following this progression

 guitar 1                                     guitar 2
 eb-...2-2-2-2--2-2-2-2--2-2-3-2--2-2-3-2    ------------------------------
 Bb-...3-3-3-3--3-3-3-3--3-3-3-3--3-3-3-3    -5-3--5-3--5-3--5-3--2-3-2-0--
 Gb-...2-2-2-2--2-2-2-2--2-2-2-2--2-2-2-2    -----------------------------2
 Db-...0-0-0-0--0-0-0-0--0-0-0-0--0-0-0-0    ------------------------------
 Ab-...----------------------------------    ------------------------------
 Eb-...----------------------------------    ------------------------------
 end of verse

 eb--0--3--2
 Bb--2--0--3
 Gb--2--0--2
 Db--2--0--0
 Ab--0--2---
 Eb-----3---
 chorus
 "Tuesday's gone with the wind"

 solo-ish intro and break
 1)              ^ ^ ^     ^ ^ ^     ^ ^ ^
 eb-------------------------------------------
 Bb--2-3-2-0----------------------------------
 Gb----------2---4-4-4-4~~-4-4-4-----4-4-4----
 Db------------------------------2~~-------4~~
 Ab-------------------------------------------
 Eb-------------------------------------------
 very "bendy"

 2)          ^  ^ ^ ^     ^ ^ ^     ^ ^ ^
 eb----------------------------------------------------
 Bb-------------------------------------------2-3-2-0--
 Gb------2-4-4~-4-4-4-4~~-4-4-4-----4-4-4-------------2
 Db--2-4------------------------2~~-------4~~----------
 Ab----------------------------------------------------
 Eb----------------------------------------------------
 still "bendy"
  development and support by
dmitry ivanov