rock
 
|tablatures   |lyrics   |discussion forums   |more tabs @ XGuitar.com

Metallica tabs

The Unforgiven Ii bass tab

bass tab to unforgiven 2 by metallica


Metallica
ReLoad
Unforgiven II
Tabbed By: Chris Boyle
Boyle216@aol.com

Intro
----------------------------------- play 2 times
--------------0--------------------
-0--0--0-2-3-----------------------
----------------3--3-3--3-0--0-----


Guitar solo


-----------------------------------	play 11 times
--------------0--------------------
-0--0--0-2-3-----------------------
----------------3--3-3--3-0--0-----


-----------------------------------  play 1 time
-----------------------------------
0--0---------------------------0---
-----1-1-1-1--3-3-3-3--0-0-0-0-----

-----------------------------------
-----------------------------------	repeat 2 times
000-002-----332-000-----333--532320
--------333---------333------------

-----------------------------------	repeat 7 times
--------------0--------------------
-0--0--0-2-3-----------------------
----------------3--3-3--3-0--0-----

-----------------------------------  play 1 time
-----------------------------------
0--0---------------------------0---
-----1-1-1-1--3-3-3-3--0-0-0-0-----

-----------------------------------
-----------------------------------	repeat 2 times
000-002-----332-000-----333--532320
--------333---------333------------

-----------------------------------	repeat 2 times
--------------0--------------------
-0--0--0-2-3-----------------------
----------------3--3-3--3-0--0-----

Guitar Solo

-----------------------------------
-----------------------------------	repeat 4 times
000-002-----332-000-----333--532320
--------333---------333------------
  development and support by
dmitry ivanov