rock
 
|tablatures   |lyrics   |discussion forums   |more tabs @ XGuitar.com

Metallica tabs

The Shortest Straw guitar tab

From: gregh@tcs.itis.com (Greg and or Paul Halvorson)

The Shortest Straw
From Metallica's ...And Justice For All album.

Tabbed by Paul Halvorson

pm  pm              pm  pm                 pm  pm
-------------------------------------------------------------------------------
-------------------------------------------------------------------------------
-------------------------------------------------------------------------------
-2---2-----2---------2---2-----2--2--2------2---2-----2------------------------
-2---2-----2---------2---2-----2--2--2------2---2-----2------------------------
-0---0-----0---------0---0-----0--0--0------0---0-----0-----3-----5------------


pm  pm              pm  pm                 pm  pm
-------------------------------------------------------------------------------
-------------------------------------------------------------------------------
-------------------------------------------------------------------------------
-2---2-----2---------2---2-----2--2--2------2---2-----2------------------------
-2---2-----2---------2---2-----2--2--2------2---2-----2------------------------
-0---0-----0---------0---0-----0--0--0------0---0-----0-----5-----3------------


pm  pm              pm  pm                 pm  pm
-------------------------------------------------------------------------------
-------------------------------------------------------------------------------
-------------------------------------------------------------------------------
-2---2-----2---------2---2-----2--2--2------2---2-----2------------------------
-2---2-----2---------2---2-----2--2--2------2---2-----2------------------------
-0---0-----0---------0---0-----0--0--0------0---0-----0-----3-----5------------


pm  pm              pm  pm                 pm  pm
-------------------------------------------------------------------------------
-------------------------------------------------------------------------------
-------------------------------------------------------------------------------
-2---2-----2---------2---2-----2--2--2------2---2-----2------------------------
-2---2-----2---------2---2-----2--2--2------2---2-----2------------------------
-0---0-----0---------0---0-----0--0--0------0---0-----0-----3--3--3--3---------


pm  pm
-----------------------|-------------------------------------------------------
-----------------------|-------------------------------------------------------
-----------------------|-------------------------------------------------------
-2---2-----2-----------|-------------------------------------------------------
-2---2-----2-----------|-------------------------------------------------------
-0---0-----0-----3--3--|-------------------------------------------------------


Riff #1
---------------------------------------------------|---------------------------
---------------------------------------------------|---------------------------
---------------------------------------------------|---------------------------
-------8--7/8--------------------------------3--3--|---------------------------
----7----------7-----------------------------3--3--|---------------------------
-0----------------------0--0--0--0--0--0--0--1--1--|---------------------------


Riff played right before verse          Riff during verses
--------------------------------|----------------------------------------------
--------------------------------|----------------------------------------------
-------3--2--3--0---------------|----------------------------------------------
----2---------------------------|-----------------------------3--3-------------
--------------------------------|-----------------------------3--3-------------
-0------------------------------|--------0--0--0--0--0--0--0--1--1-----0--0----



---------------------------------------------------------------------|---------
---------------------------------------------------------------------|---------
---------------------------------------------------------------------|---------
---------------5--5--------------------------------------------------|---------
---------------5--5--------------------------------------------------|---------
0--0--0--0--0--3--3-----0--0--0--0--0--0--0-----5-----3-----1--------|---------



-------------------------------------------------------------------------------
-------------------------------------------------------------------------------
-------------------------------------------------------------------------------
------------------------5--5--------------------------------------7--7---------
------------------------5--5--------------------------------------7--7---------
2--2--2--2--2--2--2-----3--3--------------2--2--2--2--2--2--2-----5--5---------



-------------------------------------------------------------------------------
-------------------------------------------------------------------------------
-------------------------------------------------------------------------------
------------------------5--5---------------------------------------------------
------------------------5--5---------------------------------------------------
2--2--2--2--2--2--2-----3--3--------------2--2--2--2-----7--5--3---------------
  development and support by
dmitry ivanov