rock
 
|tablatures   |lyrics   |discussion forums   |more tabs @ XGuitar.com

Metallica tabs

The Prince bass tab

Mxtabs.net
Tabber  Jeff Gamble
Metallca- The Prince
Tuneing normal

Intro/Guitar Solo:
G---------------------------------------------------
D---------------------------------------------------
A---------------------3------------------------3-5--
E 3-5-5-5-5-5-5-3-0----3-5-5-5-5-5-5-3-0-----------

G-------------------------------
D---------7-7-7-7-5-------------
A----------------------7-3-5----
E 3-5-5---------------------5-

G-----------------------------------
D-------------7---------------------
A---------5h7---7-5-5-3----------3--
E 5-5-5------------------5p3h5-----

G---------------------------------------------------------
D---------------------------------------------------------
A-5-5-3-------3-------------------------------------------
E---------3-5----5-5-5-5-5-5-5-5-5-3-1-1-1-1-1-1-1-1-1-1--

G--------------------------------------------
D--------------------------------------------
A-5-5-5-5-5-5-5-5-5-5-0-3-3-0-2-3-3-5-5-5-5--
E  ------------------------------------------

G--------------------------------------------------------------
D--------------------------------------------------------------
A --------------3-5-7-8-8-8-8-8-8-8-8-8-8-5-5-5-5-5-5-5-5-5-5--
E 5-5-5-5-5-5--------------------------------------------------

G----------------------------------------------------------------------
D----------------------------------------------------------------------
A-0-3-3-0-2-3-3-5-5-5-5-0-3-0-3-0-2-3-3-5-5-5-5-5-0-3-3-0-2-3-3-5-5-5--
E ---------------------------------------------------------------------

G----------------------------------------------------------------
D-------------7-----------------------------------------------5--
A----------5h7-7-5-5-3-----------3--------75h7---75-5-4-3-----
E 5-5-5-------------------5-3-5----5-55------------------------


G--------------------------------------------------------------------------------
D----------------------------------7------------------------------------------5--
A-5-5-3-----------3-----------5h7-----7-5-5-3----------3---------7----5h7---7----
E --------5p3h5------5-5-5-----------------------5-3-5---5-5---5-----------------

G-------------------------------------------------------
D-------------------------------------------------------
A----------------------5---3----------------------------
E-5-5-5-5-5-5-5-5 -------5--------------------0-5-(5)/--

G-------------------------------------------------------
D-------------------------------------------------------
A-------------------------------------------------------
E 0-3-4-5-5x-5-0-3-0-5-5-5-0-3-0-5-0-5-0-5-0-5-0-0-3--

G-------------------
D-------------------
A-------------------
E 0-5-3-5-0-5-3-4--

G-----------------------------------------------------------------
D-----------------------------------------------------------------
A-0-0-0-0-0-0-0-2-2-2-2-3-3-3--------------------2-2-2-2-3-3-3-0--
E -------------------------------1-1-1-1-1-1-1--------------------

G------------------------------------------------------------
D------------------------------------------------------------
A-3-3-3-3-3-3-3-5-5-5-5-6-6-6-6-7-7-7-7-7-0-3-3-3-3-2-2-2-2--
E -----------------------------------------------------------

G--------------------------------
D--------------------------------
A -------------------------------
E 5-5-5-------------5-5-5-(5)/--

G------------------------------------------------------------
D---------------7--------------------------------------------
A----------5h7----7-5-53----------3-------7------5----------
E 5-5-5---------------------5-3-5---5-55---5h7----7-7-4-3--

G--------------------------------------------
D--------------------------------------------
A-0-3-3-0-2-3-3-5-5-50-3-3-0-2-3-3-5-5-5-5--
E -------------------------------------------
  development and support by
dmitry ivanov