rock
 
|tablatures   |lyrics   |discussion forums   |more tabs @ XGuitar.com

Metallica tabs

The Memory Remains bass tab

Metallica
The Memory Remains
written by Hetfield and Ulrich
as performed on ReLoad
tab by Russell Crockett


tune all guitars down 1/2 step
|-----------------|-----------------|-----------------|-----------------|
|------REST-------|------REST-------|------REST-------|-----------------|
|-----------------|-----------------|-----------------|-----------------|
|-----------------|-----------------|-----------------|-1---------------|


|-----------------|-----------------|-----------------|-----------------|
|-----------------|-----------------|-----------------|-----------------|
|---------7-------|------------/7---|---------7-------|------------/5---|
|-0---0---0-------|-0-----0-3-0-----|-0---0---0-------|-0-----0-3-0-----|


|-----------------|-----------------|-----------------|-----------------|
|-----------------|-----------------|-----------------|-----------------|
|---------7-------|------------/7---|---------2---2-2-|-7-------------7-|
|-0---0---0-------|-0-----0-3-0-----|-3---3-3---------|-0---------------|


|-----------------|
|-----------------|
|---7-5-4-5-7-5---|
|---------------7-|


|-----------------|-----------------|-----------------|-----------------|
|-----------------|-----------------|-----------------|-----------------|
|---------7-------|------------/7---|--------7--------|------------/5---|
|-0---0---0-------|-0-----0-3-0-----|-0---0--0--------|-0-----0-3-0-----|


|-----------------|-----------------|-----------------|-----------------|
|-----------------|-----------------|-----------------|-----------------|
|---------7-------|------------/7---|---------2---2-2-|---------7-------|
|-0---0---0-------|-0-----0-3-0-----|-3---3-3---------|-0---0---0-------|


|-----------------|-----------------|-----------------|-----------------|
|-----------------|-----------------|-----------------|-----------------|
|------------/7---|---------7-------|------------/5---|---------7-------|
|-0-----0-3-0-----|-0---0---0-------|-0-----0-3-0-----|-0---0---0-------|


|-----------------|-----------------|-----------------|-----------------|
|-----------------|-----------------|-----------------|-----------------|
|------------/7---|---------2---2-5-|-7---------------|-5-7-5-4-5-7-5---|
|-0-----0-3-0-----|-3---3-3---------|-0---------------|---------------7-|


|-----------------|-----------------|-----------------|-----------------|
|-----------------|-----------------|-----------------|-----------------|
|-5-7-----7-------|-5-7-----7-------|-5-7-----7-------|-5-------5-------|
|-----0-0-----0-0-|-----0-0-----0-0-|-----0-0-----0-0-|---3---3---3---3-|


|-----------------|-----------------|-----------------|-----------------|
|-----------------|-----------------|-----------------|-----------------|
|-5-7-----7-------|-5-7-----7-------|-5-7-----7---5---|-----------------|
|-----0-0-----0-0-|-----0-0-----0-0-|-----0-0---------|-1---------------|


|-----------------|-----------------|-----------------|-----------------|
|-----------------|-----------------|-----------------|-----------------|
|---------7-------|------------/7---|---------7-------|------------/5---|
|-0---0---0-------|-0-----0-3-0-----|-0---0---0-------|-0-----0-3-0-----|


|-----------------|-----------------|-----------------|-----------------|
|-----------------|-----------------|-----------------|-----------------|
|---------7-------|------------/7---|---------2---2-5-|-7-------------7-|
|-0---0---0-------|-0-----0-3-0-----|-3---3-3---------|-0---------------|


|-----------------|
|-----------------|
|-5-7-5-4-5-7-5---|
|---------------7-|


|-----------------|-----------------|-----------------|-----------------|
|-----------------|-----------------|-----------------|-----------------|
|---------7-------|------------/7---|---------7-------|------------/5---|
|-0---0---0-------|-0-----0-3-0-----|-0---0---0-------|-0-----0-3-0-----|


|-----------------|-----------------|-----------------|-----------------|
|-----------------|-----------------|-----------------|-----------------|
|---------7-------|------------/7---|---------2---2-2-|---------7-------|
|-0---0---0-------|-0-----0-3-0-----|-3---3-3---------|-0---0---0-------|


|-----------------|-----------------|-----------------|-----------------|
|-----------------|-----------------|-----------------|-----------------|
|------------/7---|---------7-------|------------/5---|---------7-------|
|-0-----0-3-0-----|-0---0---0-------|-0-----0-3-0-----|-0---0---0-------|


|-----------------|-----------------|-----------------|-----------------|
|-----------------|-----------------|-----------------|-----------------|
|------------/7---|---------2---2-5-|-7---------------|-5-7-5-4-5-7-5---|
|-0-----0-3-0-----|-3---3-3---------|-0---------------|---------------7-|


|-----------------|-----------------|-----------------|-----------------|
|-----------------|-----------------|-----------------|-----------------|
|-5-7-----7-------|-5-7-----7-------|-5-7-----7-------|-5-------5-------|
|-----0-0-----0-0-|-----0-0-----0-0-|-----0-0-----0-0-|---3---3---3---3-|


|-----------------|-----------------|-----------------|--------10-------|
|-----------------|-----------------|-----------------|----10------10---|
|-5-7-----7-------|-5-7-----7-------|-5-7-----7---5/--|-8---------------|
|-----0-0-----0-0-|-----0-0-----0-0-|-----0-0---------|-----------------|


|---------12------|-----------------|-----------------|-----------------|
|-----12------12--|-----------------|-----------------|---------5-------|
|-10--------------|---------7-------|-2---2---2h3-2---|-------------2h3-|
|-----------------|-0---0-------0---|-----------------|-3---3-----------|


|-----------------|-----------------|-----------------|-----------------|
|-----7-------4---|-----------------|-----------------|---------5-------|
|-5-------2-------|---------7-------|-2---2---2h3-2---|-------------2h3-|
|-----------------|-0---0-------0---|-----------------|-3---3-----------|


|-----------------|-----------------|-----------------|-----------------|
|-----7-------4---|-----------------|-----------------|---------5-------|
|-5-------2-------|---------7-------|-2---2---2h3-2---|-------------2h3-|
|-----------------|-0---0-------0---|-----------------|-3---3-----------|


|-----------------|-----------------|-----------------|-----------------|
|-----7-------4---|-----------------|-----------------|---------5-------|
|-5-------2-------|---------7-------|-2---2---2h3-2---|-------------2h3-|
|-----------------|-0---0-------0---|-----------------|-3---3-----------|


|-----------------|
|-----7-------4---|
|-5-------2-------|
|-----------------|

                                                                        3x
|------------------|-----------------|-----------------|------------------|
|o-----------------|-----------------|-----------------|-----------------o|
|o-5-7-----7-------|-5-7-----7-------|-5-7-----7-------|-5-------5-------o|
|------0-0-----0-0-|-----0-0-----0-0-|-----0-0-----0-0-|---3---3---3---3--|


|-----------------|-----------------|-----------------|-----------------|
|-----------------|-----------------|-----------------|-----------------|
|-5-7-----7-------|-5-7-----7-------|-5-7-----7---5---|-----------------|
|-----0-0-----0-0-|-----0-0-----0-0-|-----0-0---------|-1---------------|


                  |-----------------|-----------------|
                  |------REST-------|------REST-------|
                  |-----------------|-----------------|
                  |-----------------|-----------------|


|-----------------|-----------------|-----------------|-----------------|
|-----------------|-----------------|-----------------|-----------------|
|-----------------|-----------------|-----------------|-----------------|
|-3-3-3-3-3-3-3-3-|-3-3-3-3-3-3-3-3-|-3-3-3-3-3-3-3-3-|-3-3-3-3-3-3-3-3-|
 p.m.------------------------------------gradually release the palm mute

|-----------------|-----------------|-----------------|-----------------|
|-----------------|-----------------|-----------------|-----------------|
|---------7-------|------------/7---|---------7-------|------------/5---|
|-0---0---0-------|-0-----0-3-0-----|-0---0---0-------|-0-----0-3-0-----|


|-----------------|-----------------|-----------------|-----------------|
|-----------------|-----------------|-----------------|------REST-------|
|---------7-------|------------/7---|---------7-------|-----------------|
|-0---0---0-------|-0-----0-3-0-----|-0---0---0---1-1-|-----------------|


|-----------------|-----------------|-----------------|-----------------|
|-----------------|-----------------|-----------------|-----------------|
|---------7-------|------------/7---|---------7-------|------------/5---|
|-0---0---0-------|-0-----0-3-0-----|-0---0---0-------|-0-----0-3-0-----|


|-----------------|--------10-------|---------12------|
|-----------------|----10------10---|-----12------12--|
|---------7-------|-8---------------|-10--------------|
|-0---0---0-------|-----------------|-----------------|


                                                                        4x
|------------------|-----------------|-----------------|------------------|
|o-----------------|-----------------|---------5-------|-----7-------4---o|
|o---------7-------|-2---2---2h3-2---|-------------2h3-|-5-------2-------o|
|--0---0-------0---|-----------------|-3---3-----------|------------------|


|-----------------|
|-9---------------|
|-7---------------|
|-0---------------|
  development and support by
dmitry ivanov