rock
 
|tablatures   |lyrics   |discussion forums   |more tabs @ XGuitar.com

Metallica tabs

The House Jack Built guitar tab


The House Jack Built


                     The House Jack Built
           Words and Music by:Hetfield,Ulrich,Hammett
                   Transcribed by:Luis Soro

Intro:      Tune Guitars down 1/2 step
|----------------|---------|-------------------------|
|.--------------.|.-------.|-------------------------|
|----------------|--3/5--7-|---3/5--7--10--12--5--7--|
|--------3-----5-|---------|-------------------------|
|.-----3-----5--.|.-1/3--5.|---1/3--5---8--10--3--5--|
|---1/----3------|--Fill1--|--Fill2(Before Entrance)-|
    sl.      Open door so I walk inside...........

Entrance:                   Guitar1:           Fill 2(3rd time)
|--------------------------|-------------------------------|
|--------------------------|.------h-p-p---^--------------.|
|--------------------------|---5--3-5-3-0--2---------------|
|---3--3--3--3--3--3--3--2-|--------------1/2--------------|
|---3--3--3--3--3--3--3--2-|.-----------------------------.|
|---1--1--1--1--1--1--1--0-|-----bend up and back down-----|

Fill 2:Guitar1              Fill 2:Guitar2
|--------------------------|----------------|
|---------0----------------|----------------|
|---h---2-----4-----2------|-----5----------|
|--2-3-----/5---5\3---2--2-|--5--5--2-------|
|------------------------2-|--5--3--2-------|
|------------------------0-|--3-----0-------|

Guitar2: Fill 2(3rd time)(above)^
|----------------|
|.--------------.|
|----------------|
|---2---2--------|
|.--2-r-2-------.|
|---0---0--------|
r=very quick rest

Main Line: Rythm is way off,so listen to the song yourself to get it
|-------------------------------------------------------------------|
|.------------------------------------------------------------------|
|---3----------3-3-------3-3-----3----------3-3---3-3-------3-------|
|---3----------3-3-------3-3-----3----------3-3---3-3-------3-------|
|.--1----------1-1-------1-1-----1----------1-1---1-1-------1-------|
|------0--0--0-------0-------0-0-----0--0--0-----0------0--0--------|
       pm....       pm        pm.....     pm.....     pm.....

|-------------------------------------------------------------------|
|------------------------------------------------------------------.|
|-------------------------------------------------------------------|
|-------------------------------------------------------------------|
|--4h--4-4---5--5--5---7--7--7----8--8--8--------------------------.|
|--0-2-2-2---3--3--3---5--5--5----6--6--6---------------------------|

Chorus:
|-------------------------------------------------------------------|
|-------------------------------------------------------------------|
|-------------------5----7-----10-------12--------------------------|
|-------3-----5---5----7----10-------10--------5--5-5---------------|
|-----3-----5---3----5----8-------10---------3----3-3---------------|
|---1-----3---------------------------------------------------------|
 The higher you are the farther you fall....

|-------------------------------------------------------------------|
|-------------------------Bend 10-1/2-------------------------------|
|-------------------5----7---^--------------------------------------|
|-------3-----5---5----7----10---8----------------------------------|
|-----3-----5---3----5-------8---8--8----8--8-----------------------|
|---1-----3-------------------------8----6--6-----------------------|

First Solo:         (Repeat 2x)
|----^------------^-----------^-----------|
|---12-----------12----------12-------15-.|
|---14-----------14----------14---12------|
|bend-14-full-----------------------------|
|----------------------------------------.|
|-----------------------------------------|

(Repeat 2x)                    Then play this to lead into main solo
|---------------------------------|---------------------------------|
|.-------h--p--p------------^----.|--13--13------15--15--15--15--15-|
|--16--14-16-14-12---------16-----|--14--14--12--12--12--12--12--12-|
|------------------16--14-Up&Down-|---------------------------------|
|.-------------------------------.|---------------------------------|
|---------------------------------|---------------------------------|

Solo:w/Talk box
|---------------------------------------------------Full------------|
|--12-----------------h-------------------------------^-------------|
|--12---~~~~----p---12-14--~~~----p------p---12--14--14--14\--------|
|-------14----14-12-------14----14-12--14-12-------------sl.--------|
|-------------------------------------------------------------------|
|-------------------------------------------------------------------|

|----------12-------12---------12-------12----12----12----12----12--|
|-------11----11-------11---------11-------11----11----11----11---11|
|---/12----------12--------12--------12-----------------------------|
|-------------------------------------------------------------------|
|-------------------------------------------------------------------|
|-------------------------------------------------------------------|

|-------------------------------1/2--------------------Full---------|
|(11)\---------------------------^-----------------------^----------|
|-sl.------12--15-~~~~~~----12--12--(12)--------12--14--14----------|
|------/14--------14-----14--------------14--14-------Up&Down--14\--|
|-------------------------------------------------------------------|
|-------------------------------------------------------------------|
                              ^   (Repeat after solo)
|----------------------------15--|--------Full----|
|----------------------Full--Full|----h-----^-----|
|---------------------9--^-------|--10-12--12-----|
|--~~~~--5--5/10---12---12-------|-------Up&Down--|
|--/7--------sl.-----------------|----------------|
|--------------------------------|----------------|

That's Basically the Entire Song.You can get the end.
It's just a mix of riffs that are all here.

^=bend
/=slide
p=pull off
h=hammer on
pm=palm mute

Back To My Metallica Page!!!!
  development and support by
dmitry ivanov