rock
 
|tablatures   |lyrics   |discussion forums   |more tabs @ XGuitar.com

Metallica tabs

Sweet Amber guitar tab

Date: Mon, 30 Jun 2003 11:58:22 -0400
From: James Titone 
Subject: m/metallica/sweet_amber.tab

Title: Sweet Amber
Artist: Metallica
Album: St. Anger
 
Key: * is palm mute
 
Tuning: C G C F A D
 
Intro
D--------------------------------------------------------------
A--------------------------------------------------------------
F-5/7----5/7--10b----5/7----5/7--10b----5/7----5/7--10b----5/7-
C--------------------------------------------------------------
G--------------------------------------------------------------
C--------------------------------------------------------------
 
Verse 1                 Finish with:
D-----------------------|----------------------
A-----------------------|----------------------
F-----------------------|----------------------
C-10/12-------10/12-----|-10/12----------------
G-10/12-------10/12-----|-10/12----------------
C-10/12-00-00-10/12-14b-|-10/12-00-00-00-00-00-
        ** **                   ** ** ** ** **
 
Verse 2                 Finish with:
D-----------------------|----------------------
A-----------------------|----------------------
F-----------------------|----------------------
C-10/12-------10/12-----|-10/12----------------
G-10/12-------10/12-----|-10/12----------------
C-10/12-------10/12-14b-|-10/12-00-00-00-00-00-
 
Bridge 1 (wah wah pedal)
D-------------------------------
A-8/15--------8/13----8/11-8/10-
F-------------------------------
C-------------------------------
G-------------------------------
C-------------------------------
 
Bridge 2
D-------------------------
A-------------------------
F-------------------------
C-----0-----0-----3-3-3-3-
G-----0-----0-----3-3-3-3-
C-0-0-0-0-0-0-0-0-3-3-3-3-
 
Chorus 1
D----------------------
A----------------------
F----------------------
C-0-------2-3------8-7-
G-0-------2-3------8-7-
C-0-------2-3------8-7-
 
Chorus 2
D----------------------
A----------------------
F----------------------
C-------3h5--------3p0-
G-------3h5--------3p0-
C-0-0-0-3h5--0-0-0-3p0-
   *   *   *             *   *  *
Verse 3
D-------------------------------------------------------------
A-------------------------------------------------------------
F-------------------------------------------------------------
C-------------------------------------------------------------
G-------------------------------------------------------------
C-12-0000-12-0000-12-0000-15-12-14-0000-14-0000-14-0000-20-19-
     ****    ****    ****          ****    ****    ****
 
Verse 4
D--------------------------------------------------------
A--------------------------------------------------------
F--------------------------------------------------------
C-0------0------0------3-0-2------2---------------------- play once
G-0------0------0------3-0-2------2----------------------
C-0-0000-0-0000-0-0000-3-0-2-0000-2-0000-0-0-1-0-0-0-1-0-
    ****   ****   ****       ****   ****
 
D--------------------------------------------------------
A--------------------------------------------------------
F--------------------------------------------------------
C-0------0-----------------2------2---------------------- play once
G-0------0-----------------2------2----------------------
C-0-0000-0-0-0-1-0-0-0-1-0-2-0000-2-0000-0-0-1-0-0-0-1-0-
    ****                     ****   ****
 
D--------------------------------------------------------
A--------------------------------------------------------
F--------------------------------------------------------
C-0-1-0-0------------------2------2---------------------- play twice
G-0-1-0-0------------------2------2----------------------
C-0-1-0-0--0-0-1-0-0-0-1-0-2-0000-2-0000-0-0-1-0-0-0-1-0-
                                   ****   ****
 
Intro       x1
Verse  1    x16
Verse  2    x12
Bridge 1    x1
Bridge 2    x2
Bridge 1    x1
Bridge 2    x4
Chorus 1    x1
Chorus 2    x4
Verse  1    x8
Verse  2    x8
Bridge 1    x1
Bridge 2    x2
Bridge 1    x1
Bridge 2    x4
Chorus 1    x1
Chorus 2    x4
Verse  3    x8
Chorus 1    x1
Verse  4    x1
Chorus 1    x1
Chorus 2    x4
Verse  1    x4
  development and support by
dmitry ivanov