rock
 
|tablatures   |lyrics   |discussion forums   |more tabs @ XGuitar.com

Metallica tabs

Sweet Amber bass tab

Metallica - Sweet Amber
album: st. anger
bassist: Bob Rock
tabbed by: Ray H

intro:
G-------------------------------------------
D-------------------------------------------
A---3-3-3---3-3-3-3--3-3-3------------------
E-------------------------------------------

Verse/Main Riff:
G--------------------------------------
D-----------------1-3-1----------------
A-1-1-333-1-1-333------------------------
E--------------------------------------
^thats not an exact count of the number of notes(duh),
just figure out how many notes on your own, 's pretty easy.
it follows the guitar.

prechorus/soft part of chorus
G------------------------
D-------------------------
A-3---1---------------------
E---------4----------------

"using what i want"
G------------------------
D------------------------
A-3-1-1-3-1-1-3-1-1-6-6-5-
E------------------------

hard part of chorus:
G---------------------------
D---------------------------
A--1-1-1-3-1-1-1------------
E---------------------------
^repeat as needed

extra at begging of verse2:
A-/13-13-13-13-13-13-13-----------

bridge
G---------------------------------------------
D---------------------------------------------
A-3-1-1-1-3-1-1-1-6--3-5-3-3-3-5-3-3-3---8-6-3
E---------------------------------------------

this may not be what Bob plays, because his bass riffs
suck in some parts of the album, but what i've tabbed
follows the guitar closely, so figure out on your own
how many of each note you should play and how many times
to repeat each riff. enjoy!
  development and support by
dmitry ivanov