rock
 
|tablatures   |lyrics   |discussion forums   |more tabs @ XGuitar.com

Metallica tabs

Stone Dead Forever guitar tab

Stone Dead Forever
written by: Kilmster, Clarke, Taylor
as performed by Metallica
on the Hero of the Day single
tab by nico de nooijer


tune all guitars down 1/2 step

bass intro
Gb--9---7---5-------2---9
Db--9---7---5---5---2---9
Ab--7---5---3---5---0---7
Eb--0-----------3-------0
guitar intro

Gb--9---9--9---9--9---9-----2--9---9--9---9--9---9--5--4
Db--9---9--9---9--9---9--5--2--9---9--9---9--9---9--5--4
Ab--7-7-7--7-7-7--7-7-7--5--0--7-7-7--7-7-7--7-7-7--3--2
Eb-----------------------3------------------------------
     pm      .      .            .      .      .
Can't you see me

Gb---------------------------------------
Db----5---5---5---5---7---7---7---7--5--4
Ab----5---5---5---5---7---7---7---7--5--4
Eb--7---7---7---7---9---9---9---9----3--2

Gb---------------------------------------------
Db----5---5---5---5---7---7---7---7--5--4--3--2
Ab----5---5---5---5---7---7---7---7--5--4--3--2
Eb--7---7---7---7---9---9---9---9----3--2--1--0
Right there on your own.............Stone Dead Forever!!!

Gb--------2--5--7
Db--2--5--2--5--7  twice then to intro riff
Ab--2--5--0--3--5
Eb--0--3---------
solo riff
  development and support by
dmitry ivanov