rock
 
|tablatures   |lyrics   |discussion forums   |more tabs @ XGuitar.com

Metallica tabs

Stone Cold Crazy bass tab

Metallica - Stone Cold Crazy
Original : Queen - Sheer Heart Attack
Tabbed By Mark Craig (Bigmc)
Email: bigmc@24stadium.freeserve.co.uk

Intro

G-----|
D-----|
A--(3)|
E-----|


Main Riff:

G---------------|--------------------|
D---------------|--------------------|
A-------------1-|---------1h3-2-3-4-5|
E--1h3-3-3-3-3--|-1h3-3-3------------|

1st Verse at 29sec

G--------------|
D--------------|
A--------------|
E--3--33-333333|

End Of Verse

G-----------------|
D-----------------|
A1h3-3-3-3-3-3-3-3|
E-----------------|

Solo1

G-------------------------|X2    G--4-2------|
D-------------------------|      D-----4-2---|
A--2-2-2-2-2-2-2-2-2-2-2-2|      A--------5-0|
E-------------------------|      E-----------|


Solo 2

G-------------------------|X2 G--4-2------|
D-------------------------|   D-----4-2---|
A--2-2-2-2-2-2-2-2-2-2-2-2|   A--------5-0|
E-------------------------|   E-----------|



Order:

Intro X1
Main Riff X4
1st Verse X1
End Of Verse X1
Main Riff X2
Solo1 X1
Main Riff X2
End Of Verse X1
Solo2 X3
Main Riff X2
End Of Verse X1
Main Riff X2

Play And Enjoy!

1h3 - Hammer On
(3) - Let Note Ring
  development and support by
dmitry ivanov