rock
 
|tablatures   |lyrics   |discussion forums   |more tabs @ XGuitar.com

Metallica tabs

St. Anger guitar tab

Song: St. Anger
Band: Metallica
Album: St. Anger
Guitarist: James Hetfield (Guitar 1)/Kirk Hammett (Guitar 2)

Tabbed by: bizkitclan (bizkitclan@katamail.com)

x = palm muted

P.S. = When two staffs are connected, they must be played in the same time.

 Guitar 1
|----------------------------------------------------------------------------||
|----------------------------------------------------------------------------||
|----------------------------------------------------------------------------||
|----------------------------------------------------------------------------||
|----------------------------3-3-3----------------------------3-3-3----------||
|--0-1-2-2-0-2-1-0-2-1-0-1-2--------0-0-2-2-0-2-1-0-2-1-0-1-2----------------||
   x x x x x   x x   x x x x        x x x x x   x x   x x x x

|----------------------------------------------------------------------------||
|----------------------------------------------------------------------------||
|----------------------------------------------------------------------------||
|----------------------------3-3-3----------------------------3-3-3----------||
|------------2-----2---------3-3-3------------2-----2---------3-3-3----------||
|--0-1-2-2-0-2-1-0-2-1-0-1-2--------0-0-2-2-0-2-1-0-2-1-0-1-2----------------||
   x x x x x   x x   x x x x        x x x x x   x x   x x x x

 Guitar 1
|----------------------------------------------------------------------------||
|----------------------------------------------------------------------------||
|----------------------------------------------------------------------------||
|----------------------------3-3-3----------------------------3-3-3----------||
|------------2-----2---------3-3-3------------2-----2---------3-3-3----------||
|--0-1-2-2-0-2-1-0-2-1-0-1-2--------0-0-2-2-0-2-1-0-2-1-0-1-2----------------||
|  x x x x x   x x   x x x x        x x x x x   x x   x x x x                ||
|									     ||
|Guitar 2 								     ||
|----------------------------------------------------------------------------||
|----------------------------------------------------------------------------||
|----------------------------------------------------------------------------||
|----------------------------------------------------------------------------||
|----------------------------------------------------------------------------||
|------------2-1-0-2-1-0-2-1-0-2-1-0----------2-1-0-2-1-0--------------------||

 Guitar 1
|----------------------------------------------------------------------------||
|----------------------------------------------------------------------------||
|----------------------------------------------------------------------------||
|----------------------------3-3-3----------------------------3-3-3----------||
|------------2-----2---------3-3-3------------2-----2---------3-3-3----------||
|--0-0-2-2-0-2-1-0-2-1-0-1-2--------0-0-2-2-0-2-1-0-2-1-0-1-2----------------||
|  x x x x x   x x   x x x x        x x x x x   x x   x x x x                ||
|								             ||
|Guitar 2								     ||
|----------------------------------------------------------------------------||
|----------------------------------------------------------------------------||
|----------------------------------------------------------------------------||
|----------------------------------------------------------------------------||
|----------------------------------------------------------------------------||
|------------2-1-0-2-1-0----------------------2-1-0-2-1-0-2-1-0-2-1-0--------||

 Guitar 1 & 2 (x2)
|----------------------------------------------------------------------------||
|----------------------------------------------------------------------------||
|----------------------------------------------------------------------------||
|----------------------------3-3-3----------------------------3-3-3----------||
|--0-1-2-2-0-2-1-0-2-1-0-1-2-3-3-3--0-1-2-2-0-2-1-0-2-1-0-1-2-3-3-3----------||
|--0-1-2-2-0-2-1-0-2-1-0-1-2--------0-1-2-2-0-2-1-0-2-1-0-1-2----------------||

 Guitar 1 & 2 (x2)
|----------------------------------------------------------------------------||
|----------------------------------------------------------------------------||
|----------------------------------------------------------------------------||
|----------------------------3-3-3----------------------------3-3-3----------||
|--0-1-2-2-0-2-1-0-2-1-0-1-2-3-3-3--0-1-2-2-0-2-1-0-2-1-0-1-2-3-3-3----------||
|--0-1-2-2-0-2-1-0-2-1-0-1-2--------0-1-2-2-0-2-1-0-2-1-0-1-2----------------||
   x x x x x   x x   x x x x        x x x x x   x x   x x x x

 Guitar 1 & 2
|----------------------------------------------------------------------------||
|----------------------------------------------------------------------------||
|----------------------------------------------------------------------------||
|----------------------------------------------------------------------------||
|--2-1-0-2-1-0-2-1-0-2-1-0---------------------------------------------------||
|--2-1-0-2-1-0-2-1-0-2-1-0---------------------------------------------------||

 Guitar 1 (x2)
|---------2------------------------------------------------------------------||
|--3---------3-------3-------3-----3-------3------------3-------3-----3------||
|----2-------------0---0-----------------2---2--------0---0------------------||
|------0------------------------------0---------0----------------------------||
|---------------3---------1-----0------------------3---------1-----0---------||
|----------------------------------------------------------------------------||
|									     ||
|									     ||
|Guitar 2 (x2)           						     ||
|----------------------------------------------------------------------------||
|--1-----1--3-----3--3-----------------1-----1-3-------3-3-------------------||
|--2--2-------2---0-----------------------2------2-----0---------------------||
|---------------0----------------------------------0-------------------------||
|-------------------------1-----0----------------------------1-----0---------||
|----------------------------------------------------------------------------||

 Guitar 1 (x4)
|----------------------------------------------------------------------------||
|----------------------------------------------------------------------------||
|--7-7-7-7-7-7-7-7-7-7-7-7-7-7-7-7--5-5-5-5-5-5-5-5--3-3-3-3-3-3-3-3---------||
|--x-x-x-x-x-x-x-x-x-x-x-x-x-x-x-x--x-x-x-x-x-x-x-x--x-x-x-x-x-x-x-x---------||
|--5-5-5-5-5-5-5-5-5-5-5-5-5-5-5-5--3-3-3-3-3-3-3-3--1-1-1-1-1-1-1-1---------||
|----------------------------------------------------------------------------||
|								             ||
|									     ||
|Guitar 2 (x4)                                                               ||
|----------------------------------------------------------------------------||
|-----------------------------------13-13-13-13-13-13-13-13------------------||
|--7-7-7-7-7-7-7-7-7-7-7-7-7-7-7-7--x--x--x--x--x--x--x--x-------------------||
|--x-x-x-x-x-x-x-x-x-x-x-x-x-x-x-x--10-10-10-10-10-10-10-10------------------||
|--5-5-5-5-5-5-5-5-5-5-5-5-5-5-5-5-------------------------------------------||
|----------------------------------------------------------------------------||
|                           						     ||
|----------------------------------------------------------------------------||
|--11-11-11-11--10-10-10-10--------------------------------------------------||
|--x--x--x--x---x--x--x--x---------------------------------------------------||
|--8--8--8--8---7--7--7--7---------------------------------------------------||
|----------------------------------------------------------------------------||
|----------------------------------------------------------------------------||

 Guitar 2
|----------------------------------------------------------------------------||
|----------------------------------------------------------------------------||
|----------------------------------------------------------------------------||
|-----------------5--2--2----------------------------------------------------||
|--0---0-0--0-0---3--1--0----------------------------------------------------||
|--0---0-0--0-0--------------------------------------------------------------||
       x x  x x

 Guitar 1 (x8)
|----------------------------------------------------------------------------||
|----------------------------------------------------------------------------||
|--7-7-7-7-7-7-7-7-7-7-7-7-7-7-7-7--5-5-5-5-5-5-5-5--3-3-3-3-3-3-3-3---------||
|--x-x-x-x-x-x-x-x-x-x-x-x-x-x-x-x--x-x-x-x-x-x-x-x--x-x-x-x-x-x-x-x---------||
|--5-5-5-5-5-5-5-5-5-5-5-5-5-5-5-5--3-3-3-3-3-3-3-3--1-1-1-1-1-1-1-1---------||
|----------------------------------------------------------------------------||
|								             ||
|									     ||
|Guitar 2 (x8)                                                               ||
|----------------------------------------------------------------------------||
|-----------------------------------13-13-13-13-13-13-13-13------------------||
|--7-7-7-7-7-7-7-7-7-7-7-7-7-7-7-7--x--x--x--x--x--x--x--x-------------------||
|--x-x-x-x-x-x-x-x-x-x-x-x-x-x-x-x--10-10-10-10-10-10-10-10------------------||
|--5-5-5-5-5-5-5-5-5-5-5-5-5-5-5-5-------------------------------------------||
|----------------------------------------------------------------------------||
|                           						     ||
|----------------------------------------------------------------------------||
|--11-11-11-11--10-10-10-10--------------------------------------------------||
|--x--x--x--x---x--x--x--x---------------------------------------------------||
|--8--8--8--8---7--7--7--7---------------------------------------------------||
|----------------------------------------------------------------------------||
|----------------------------------------------------------------------------||

 Guitar 2
|----------------------------------------------------------------------------||
|----------------------------------------------------------------------------||
|----------------------------------------------------------------------------||
|----------------------------------------------------------------------------||
|--0---0-0--0-0--0-0--0-0---0------------------------------------------------||
|--0---0-0--0-0--0-0--0-0---0------------------------------------------------||
       x x  x x  x x  x x

 Guitar 1 & 2
|----------------------------------------------------------------------------||
|----------------------------------------------------------------------------||
|----------------------------------------------------------------------------||
|----------------------------3-3-3-------------------------------------------||
|--0-1-2-2-0-2-1-0-2-1-0-1-2-3-3-3-------------------------------------------||
|--0-1-2-2-0-2-1-0-2-1-0-1-2-------------------------------------------------||
   x x x x x   x x   x x x x

 Guitar 1 & 2 (x2)
|----------------------------------------------------------------------------||
|----------------------------------------------------------------------------||
|----------------------------------------------------------------------------||
|----------------------------3-3-3----------------------------3-3-3----------||
|--0-1-2-2-0-2-1-0-2-1-0-1-2-3-3-3--0-1-2-2-0-2-1-0-2-1-0-1-2-3-3-3----------||
|--0-1-2-2-0-2-1-0-2-1-0-1-2--------0-1-2-2-0-2-1-0-2-1-0-1-2----------------||

 Guitar 1 & 2
|----------------------------------------------------------------------------||
|----------------------------------------------------------------------------||
|----------------------------------------------------------------------------||
|----------------------------------------------------------------------------||
|--2-1-0-2-1-0-2-1-0-2-1-0---------------------------------------------------||
|--2-1-0-2-1-0-2-1-0-2-1-0---------------------------------------------------||

 Guitar 1 (x2)
|---------2------------------------------------------------------------------||
|--3---------3-------3-------3-----3-------3------------3-------3-----3------||
|----2-------------0---0-----------------2---2--------0---0------------------||
|------0------------------------------0---------0----------------------------||
|---------------3---------1-----0------------------3---------1-----0---------||
|----------------------------------------------------------------------------||
|									     ||

|									     ||
|Guitar 2 (x2)           						     ||
|----------------------------------------------------------------------------||
|--1-----1--3-----3--3-----------------1-----1-3-------3-3-------------------||
|--2--2-------2---0-----------------------2------2-----0---------------------||
|---------------0----------------------------------0-------------------------||
|-------------------------1-----0----------------------------1-----0---------||
|----------------------------------------------------------------------------||

 Guitar 1 (x4)
|----------------------------------------------------------------------------||
|----------------------------------------------------------------------------||
|--7-7-7-7-7-7-7-7-7-7-7-7-7-7-7-7--5-5-5-5-5-5-5-5--3-3-3-3-3-3-3-3---------||
|--x-x-x-x-x-x-x-x-x-x-x-x-x-x-x-x--x-x-x-x-x-x-x-x--x-x-x-x-x-x-x-x---------||
|--5-5-5-5-5-5-5-5-5-5-5-5-5-5-5-5--3-3-3-3-3-3-3-3--1-1-1-1-1-1-1-1---------||
|----------------------------------------------------------------------------||
|								             ||
|									     ||
|Guitar 2 (x4)                                                               ||
|----------------------------------------------------------------------------||
|-----------------------------------13-13-13-13-13-13-13-13------------------||
|--7-7-7-7-7-7-7-7-7-7-7-7-7-7-7-7--x--x--x--x--x--x--x--x-------------------||
|--x-x-x-x-x-x-x-x-x-x-x-x-x-x-x-x--10-10-10-10-10-10-10-10------------------||
|--5-5-5-5-5-5-5-5-5-5-5-5-5-5-5-5-------------------------------------------||
|----------------------------------------------------------------------------||
|                           						     ||
|----------------------------------------------------------------------------||
|--11-11-11-11--10-10-10-10--------------------------------------------------||
|--x--x--x--x---x--x--x--x---------------------------------------------------||
|--8--8--8--8---7--7--7--7---------------------------------------------------||
|----------------------------------------------------------------------------||
|----------------------------------------------------------------------------||

 Guitar 2
|----------------------------------------------------------------------------||
|----------------------------------------------------------------------------||
|----------------------------------------------------------------------------||
|-----------------5--2--2----------------------------------------------------||
|--0---0-0--0-0---3--1--0----------------------------------------------------||
|--0---0-0--0-0--------------------------------------------------------------||
       x x  x x

 Guitar 1 (x8)
|----------------------------------------------------------------------------||
|----------------------------------------------------------------------------||
|--7-7-7-7-7-7-7-7-7-7-7-7-7-7-7-7--5-5-5-5-5-5-5-5--3-3-3-3-3-3-3-3---------||
|--x-x-x-x-x-x-x-x-x-x-x-x-x-x-x-x--x-x-x-x-x-x-x-x--x-x-x-x-x-x-x-x---------||
|--5-5-5-5-5-5-5-5-5-5-5-5-5-5-5-5--3-3-3-3-3-3-3-3--1-1-1-1-1-1-1-1---------||
|----------------------------------------------------------------------------||
|								             ||
|									     ||
|Guitar 2 (x8)                                                               ||
|----------------------------------------------------------------------------||
|-----------------------------------13-13-13-13-13-13-13-13------------------||
|--7-7-7-7-7-7-7-7-7-7-7-7-7-7-7-7--x--x--x--x--x--x--x--x-------------------||
|--x-x-x-x-x-x-x-x-x-x-x-x-x-x-x-x--10-10-10-10-10-10-10-10------------------||
|--5-5-5-5-5-5-5-5-5-5-5-5-5-5-5-5-------------------------------------------||
|----------------------------------------------------------------------------||
|                           						     ||
|----------------------------------------------------------------------------||
|--11-11-11-11--10-10-10-10--------------------------------------------------||
|--x--x--x--x---x--x--x--x---------------------------------------------------||
|--8--8--8--8---7--7--7--7---------------------------------------------------||
|----------------------------------------------------------------------------||
|----------------------------------------------------------------------------||

 Guitar 2
|----------------------------------------------------------------------------||
|----------------------------------------------------------------------------||
|----------------------------------------------------------------------------||
|----------------------------------------------------------------------------||
|--0---0-0--0-0--0-0--0-0---0------------------------------------------------||
|--0---0-0--0-0--0-0--0-0---0------------------------------------------------||
       x x  x x  x x  x x

 Guitar 1 & 2
|----------------------------------------------------------------------------||
|----------------------------------------------------------------------------||
|----------------------------------------------------------------------------||
|----------------------------3-3-3-------------------------------------------||
|--0-1-2-2-0-2-1-0-2-1-0-1-2-3-3-3-------------------------------------------||
|--0-1-2-2-0-2-1-0-2-1-0-1-2-------------------------------------------------||
   x x x x x   x x   x x x x

 Guitar 1 & 2 (x8)
|----------------------------------------------------------------------------||
|----------------------------------------------------------------------------||
|----------------------------------------------------------------------------||
|----------------------------3-3-3----------------------------3-3-3----------||
|--0-1-2-2-0-2-1-0-2-1-0-1-2-3-3-3--0-1-2-2-0-2-1-0-2-1-0-1-2-3-3-3----------||
|--0-1-2-2-0-2-1-0-2-1-0-1-2--------0-1-2-2-0-2-1-0-2-1-0-1-2----------------||

 Guitar 1 & 2
|----------------------------------------------------------------------------||
|----------------------------------------------------------------------------||
|----------------------------------------------------------------------------||
|----------------------------------------------------------------------------||
|--2-1-0-2-1-0-2-1-0-2-1-0---------------------------------------------------||
|--2-1-0-2-1-0-2-1-0-2-1-0---------------------------------------------------||

 Guitar 1 (x8)
|----------------------------------------------------------------------------||
|----------------------------------------------------------------------------||
|--7-7-7-7-7-7-7-7-7-7-7-7-7-7-7-7--5-5-5-5-5-5-5-5--3-3-3-3-3-3-3-3---------||
|--x-x-x-x-x-x-x-x-x-x-x-x-x-x-x-x--x-x-x-x-x-x-x-x--x-x-x-x-x-x-x-x---------||
|--5-5-5-5-5-5-5-5-5-5-5-5-5-5-5-5--3-3-3-3-3-3-3-3--1-1-1-1-1-1-1-1---------||
|----------------------------------------------------------------------------||
|								             ||
|									     ||
|Guitar 2 (x8)                                                               ||
|----------------------------------------------------------------------------||
|-----------------------------------13-13-13-13-13-13-13-13------------------||
|--7-7-7-7-7-7-7-7-7-7-7-7-7-7-7-7--x--x--x--x--x--x--x--x-------------------||
|--x-x-x-x-x-x-x-x-x-x-x-x-x-x-x-x--10-10-10-10-10-10-10-10------------------||
|--5-5-5-5-5-5-5-5-5-5-5-5-5-5-5-5-------------------------------------------||
|----------------------------------------------------------------------------||
|                           						     ||
|----------------------------------------------------------------------------||
|--11-11-11-11--10-10-10-10--------------------------------------------------||
|--x--x--x--x---x--x--x--x---------------------------------------------------||
|--8--8--8--8---7--7--7--7---------------------------------------------------||
|----------------------------------------------------------------------------||
|----------------------------------------------------------------------------||

 Guitar 2
|----------------------------------------------------------------------------||
|----------------------------------------------------------------------------||
|----------------------------------------------------------------------------||
|----------------------------------------------------------------------------||
|--0---0-0--0-0--0-0--0-0---0------------------------------------------------||
|--0---0-0--0-0--0-0--0-0---0------------------------------------------------||
       x x  x x  x x  x x

 Guitar 1 & 2
|----------------------------------------------------------------------------||
|----------------------------------------------------------------------------||
|----------------------------------------------------------------------------||
|----------------------------3-3-3-------------------------------------------||
|--0-1-2-2-0-2-1-0-2-1-0-1-2-3-3-3-------------------------------------------||
|--0-1-2-2-0-2-1-0-2-1-0-1-2-------------------------------------------------||
   x x x x x   x x   x x x x

 Guitar 1 & 2
|----------------------------------------------------------------------------||
|----------------------------------------------------------------------------||
|----------------------------------------------------------------------------||
|----------------------------------------------------------------------------||
|--0-------------------------------------------------------------------------||
|--0-------------------------------------------------------------------------||
  development and support by
dmitry ivanov