rock
 
|tablatures   |lyrics   |discussion forums   |more tabs @ XGuitar.com

Metallica tabs

St. Anger bass tab

Date: Wed, 02 Jul 2003 12:44:18 +0300
From: ahmed tarek 
Subject: m/metallica/st_anger.btab

Song: St.Anger
Artist: METALLICA
Album: ST.ANGER
------------------
Tuning: Drop C ( CGCF)
----------------------

Intro:
(With The drums)
F-----------------------------
C-----------------------------
G-----------------------------
C--1--1-----1--1------1--1----1--1

F----------------------
C----------------------
G-------------------------1---1-
C-1-0-0-1-0-0-1--0-3---------0

F----------------|----------------
C----------------|----------------
G----------------|------------------1-1---       Repeat 8X
C0-1-3-0-1-0-0-1|-0-0-1-0-3----0--

F----------------|----------------|--------------------
C----------------|----------------|--------------------
G----------------|----------------|--------------------
C-0-3-1-0-3-1-0-3|-1-0-3-1-0-3-1-0|-0-0-0-0-0/10-10-10-

verse:
(Slower tempo)
F----------------|------------------
C----------------|------------------
G----------------|------------------     Repeat 8X
C-0-0-0-0-3-1-0-0|0-0-0-0-0/10-10-10

Chorus:
(tremolo Picking )
F------------------------------------------------------------------------
C------------------------------------------------------------------------  
Repeat 4X
G------------------------------------------------------------------------
C-0-0-0-0-0-0-0-0-0-0-0-0-0-0-0-0-10-10-10-10-10-10-10-10-8-8-8-8-7-7-7-7

F------------------------------------------------------------------
C------------------------------------------------------------------
G------------------------------------------------------------------
C--0---------0--0---0-0--------10-10-10-10-10-10-10-8-8-8-8-7-7-7-7


F---------------------------------------------------------------------
C---------------------------------------------------------------------
G---------------------------------------------------------------------    
Repeat 4X
c-0-0-0-0-0-0-0-0-0-0-0-0-0-0-0-0-10-10-10-10-10-10-10-8-8-8-8-7-7-7-7



that's it listen to the song for the timing and the arrangment of 
riffs........
  development and support by
dmitry ivanov