rock
 
|tablatures   |lyrics   |discussion forums   |more tabs @ XGuitar.com

Metallica tabs

Some Kind Of Monster guitar tab

sONG: SOME KIND OF MONSTER
BAND: METALLICA
ALBUM: ST. ANGER
TRANSCRIBED BY: TRAVIS MUISE

() =HOLD NOTE
b =BEND NOTE
P.M.= PALM MUTE
h =HAMMER-ON



I LABELLED THESE THE BEST I COULD, BUT YOU'LL HAVE TO MATCH UP THE RIFFS WITH THE SONG. THIS
ISN'T EXACT, BUT YOU'LL DEFINITELY BE ABLE TO FIGURE THE SONG OUT BASED ON THIS.

ANYWAYS, TUNE DOWN YOUR GUITAR TO DROP-C (C,G,C,F,A,D) AND REMEMBER TO USE DOWN-STROKES AS
BEST YOU CAN (ALTHOUGH YOU PROBABLY WON'T MATCH JAMES HETFIELDS ABILITY)! ENJOY!


INTRO
|------------------------------------|----------------|-----|---------------|-----|
|------------------------------------|----------------|-13--|---------------|-13--|
|------------------------------------|----------------|-12b-|-(7)~~-7-10-12-|-12b-|
|------------------------------------|-----(3)--5-(0)-|-----|---------------|-----|
|------------------------------------|-----(3)--5-(0)-|-----|---------------|-----|
|-(0)-0-3-5-0--0-3-5-0-3-5-0-3-5~~-0-|-0-3-(3)--5-(0)-|-----|---------------|-----|
                                       P.M.

AFTER INTRO & BEFORE VERSE    VERSE
|----------------------------|----------------------|-----------|-----------|
|----------------------------|----------------------|-----------|--------6b-|
|----------------------------|----------------------|-----------|--------6b-|
|----------------------------|----------------------|-0-0-3-2-0-|-----------|
|-0--0-3-5-0--0-3-5--3-5-3-5-|--------3h5---3h5-5---|-0-0-3-2-0-|-----------|
|-0--0-3-5-0--0-3-5--3-5-3-5-|-(0)--0-----0-------0-|-0-0-3-2-0-|-0--0-0----|
                                                      P.M......|     P.M.


JUST BEFORE CHORUS    CHORUS                    PART OF VERSE
|--------------------|-------------------------|-------------|-----------|
|--------------------|-------------------------|-------------|-----------|
|--------------------|-------------------------|-------------|-----------|
|-0--0--0-0--2-2-3-3-|-------------------------|-------------|-0-0-3-2-0-|
|-0--0--0-0--2-2-3-3-|-3h5-5-0---0-----3h5-5-0-|--------7b---|-0-0-3-2-0-|
|-0--0--0-0--2-2-3-3-|-3h5-5-0---0-0-0-3h5-5-0-|-(0)--0------|-0-0-3-2-0-|

|-------------------------------------------------|-----------------
|-------------------------------------------------|-----------------
|-------------------------------------------------|-----------------
|------------3--------1-------------3-------1-1-1-|------------------
|--------3h5----------1---------3h5---------1-1-1-|--------------------
|-(0)--0-------0-0-0--1--(0)--0-------0-0-0-1-1-1-|---------------------
              P.M..|                 P.M........|
  development and support by
dmitry ivanov