rock
 
|tablatures   |lyrics   |discussion forums   |more tabs @ XGuitar.com

Metallica tabs

Some Kind Of Monster bass tab

tabbed in normal standard tuning

main
----------------------
---1-3------1--1-3---1
3-3---3--3-3--3----3--
----------------------

after main
--------------------
55-3--5-0--55-3--5-0
--------------------
--------------------

after that ^
0-0-3-5-0               0-3-5-6--6-5-3
---------  x7 then goto --------------
---------               --------------
---------               --------------

verse (<> = hammer)
---3<5>-3<5>
------------
3-3----3---3
------------

that should be it I hope, i didnt go to deep into this song since its about 8 minutes long, rate to tell me how i did and enjoy.
  development and support by
dmitry ivanov