rock
 
|tablatures   |lyrics   |discussion forums   |more tabs @ XGuitar.com

Metallica tabs

Shoot Me Again guitar tab

Date: Fri, 11 Jul 2003 00:29:00 +0200
From: Kristof Smits 
Subject: m/metallica/shoot_me_again.tab

Song: Shoot Me Again
Artist: MetallicA
Album: St. Anger
 
Tabbed by Kristof Smits
 
Drop C Tuning
 
Intro (Guitar 2, w/wah):
d----------------------------
A----------------------------
F--x-x-x-x-x-x-x-x-x-x-x-x---
C--x-x-x-x-x-x-x-x-x-x-x-x---
G----------------------------
C----------------------------
 
Guitar 1
d----------------------------
A----------------------------
F----------------------------
C----------------------------  repeat
G--5h6-5h6-5h6-5h6-5h6-5h6---
C--0---0---0---0---0---0-----
 
Bass Fill
 
Riff 1 (play 10 times):
Guitar 1
d------------------
A------------------
F------------------
C------------------
G--5h6---5h6-5h6---
C--0-----0---0-----
 
Guitar 2
d------------------------------
A------------------------------
F------------------------------
C------------------------------
G------------------------------
C----0-0-0-0---0-0-0-0---0-0---
PM   . . . .   . . . .   . .
 
Riff 2:
                      (x8)
d-------------------------
A-------------------------
F-------------------------
C-------------------------
G--------6p5--------5h6---
C--0-0-0-0----0-0-0-0-----
PM . . .      . . .
 
Riff 3 = Verse:
                                                                   (x2)
d----------------------------------------------------------------------
A----------------------------------------------------------------------
F----------------------------------------------------------------------
C----------------------------------------------------------------------
G--0--0-0--0--0--0---0--0-0--0--0--0---1--1-1--1--1--1-5h6-5h6-5h6-0---
C--0--0-0--0--0--0---0--0-0--0--0--0---1--1-1--1--1--1-0---0---0---0---
PM .  . .  .  .  .   .  . .  .  .  .   .  . .  .  .  .
 
Riff 2 x4
 
Riff 3 x2
 
Riff 4 = Pre-Chorus:
                                       (x4)
d------------------------------------------
A------------------------------------------
F------------------------------------------
C------------------------------------------
G---------------------------------0-3--1---
C---------------------------------0-3--1---
"Shoot me again, I ain't dead yet..."
 
d------------------------
A------------------------
F------------------------
C------------------------ repeat
G------------------------
C--0-0-0-0-0-0-0-0-0-0---
PM . . . . . . . . . .
 
Riff 5 = Chorus:
d-----------------------------------------------------------------------
A-----------------------------------------------------------------------
F-----------------------------------------------------------------------
C-----------------------------------------------------------------------
G--0-0---0---0--3-3---3---3--1-1---1---1--5h6-6-5h6-6-5h6-6-6-6-6-6-6---
C--0-0-0-0-0-0--3-3-3-3-3-3--1-1-1-1-1-1--0---0-0---0-0---0-0-0-0-0-0---
 
d--------------------------------------
A--------------------------------------
F--------------------------------------
C--------------------------------------
G--5h6-5h6-5h6-5h6---5h6-5h6-5h6-5h6---
C--0---0---0---0-----0---0---0---0-----
"All the shots, all the shots..."
 
d---------------------------------------------------------------------
A---------------------------------------------------------------------
F---------------------------------------------------------------------
C---------------------------------------------------------------------
G----------0----------0----------3----------3----------1----------1---
C--0-0-0-0-0--0-0-0-0-0--0-3-3-3-3--3-3-3-3-3--3-1-1-1-1--1-1-1-1-1---
PM . . . .    . . . .    . . . .    . . . .    . . . .    . . . .
 
(continued)                  (x2)
d--------------------------------
A--------------------------------
F--------------------------------
C--------------------------------
G--5h6-6-5h6-6-5h6-6-6-6-6-6-6--- C--0---0-0---0-0---0-0-0-0-0-0---
 
Riff 2 x4
 
Riff 3 x2
 
Riff 2 x4
 
Riff 3 x2
 
Riff 4
 
Riff 5
 
Riff 2 x4
 
Intro (Guitar 2, very short)
 
Riff 1
 
Riff 6:
Guitar 1
                         (x4)
d----------------------------
A----------------------------
F----------------------------
C----------------------------
G--0-0-6p5~-6p5~-6p5~-6p5~---
C--0-0-----------------------
PM . .
 
Guitar 2
d--------------------------------------
A--------------------------------------
F--------------------------------------
C--------------------------------------
G--0-0-----0-0-----0-0-----0-0---------
C--0-0-----0-0-----0-0-----0-0---------
PM . .     . .     . .     . .
 
Riff 7 (play two times):
d--------------------
A--------------------
F--------------------
C-------------------- repeat
G--1-1-1-1-1-1-1-1---
C--1-1-1-1-1-1-1-1---
"Bite my tongue..."
 
d----------------------------------------
A----------------------------------------
F----------------------------------------
C----------------------------------------
G------6p5~-----6p5~-----6p5~-----6p5~---
C--0-0------0-0------0-0------0-0--------
PM . .      . .      . .      . .
 
Riff 1 x3
Riff 8 (play two times):
d--------------------------------------------------
A--------------------------------------------------
F--------------------------------------------------
C--------------------------------------------------
G--6-5--5-5--5-5--5-5--5-5--5-5--5-5--5-5--5-6p0---
C--0-0--0-0--0-0--0-0--0-0--0-0--0-0--0-0--0-6p0---
PM . .  . .  . .  . .  . .  . .  . .  . .  .
 
Riff 8 x4
"Wake the sleeping..."
 
Intro (Guitar 1)
"Bite my tongue..."
 
Riff 1 (Guitar 1)
 
Riff 9:
d--------------------------------
A--------------------------------
F--------------------------------
C--------------------------------
G--5-5-5-5-5-5-5-6p5-5-5-5-5-6---
C--0-0-0-0-0-0-0-----0-0-0-0-0---
 
Riff 5 (fast picking)
 
Riff 2 x4
 
Intro (Guitar 2)
  development and support by
dmitry ivanov