rock
 
|tablatures   |lyrics   |discussion forums   |more tabs @ XGuitar.com

Metallica tabs

Shoot Me Again bass tab

metallica- shoot me again.
bob rock played for the record but its still a pretty grooooving song.
tabbed by:thad.(please rate!)

 0:08
Gb-------------------------------------
Db---0h10h13—0h10h13-0h10h13-0h10h13---
Ab------------------------------------- 5x
Eb-------------------------------------

   0:19
Gb-------------------------------
Db-------------------------------
Ab------------------------------- 2x
Eb--00000000000000000000000000---

   0:28
Gb--------------------------
Db--------------------------
Ab--------------------------
Eb--0---0---0---0---0---0---

   0:32
Gb-------------------------------
Db-------------------------------
Ab------------------------------- 2x
Eb--00000000000000000000000000---

   0:36
Gb--------------------------
Db--------------------------
Ab--------------------------
Eb--0---0---0---0---0---0---

   0:41
Gb--------------------
Db--------------------
Ab------0h1----------- 8x
Eb--0-0-----0-0-0-1---

   0:58
Gb-----------------------------------------------------
Db-----------------------------------------------------
Ab----------------------------------------------------- 2x
Eb--0-0--0--0---0-0--0--0---1-1—-1—-1—--12-12-12-12/---

   1:15
Gb--------------------
Db--------------------
Ab------0h1----------- 4x
Eb--0-0-----0-0-0-1---

   1:24
Gb-----------------------------------------------------
Db-----------------------------------------------------
Ab----------------------------------------------------- 2x
Eb--0-0--0--0---0-0--0--0---1-1—-1—-1—--12-12-12-12/---

   1:40
Gb--------------------------------------------------
Db--------------------------------------------------
Ab--------------------------------------------------
Eb--0-0--0--0---0-3-1-1h3---0-0--0--0---0-3—1—1h3---

Gb--------------------------------------------------
Db--------------------------------------------------
Ab--------------------------------------------------
Eb--0-0--0--0---0-3-1-1h3---0-0--0--0---0-3—1—1h3---

   1:58
Gb-------------------------------
Db-------------------------------
Ab------------------------------- 2x
Eb--00000000000000000000000000---

   2:07
Gb-------------------------------------------------------------------------------
Db--------------------------------------------------12h131313131312h1313h131313--
Ab------------------------------------------------------------------------------- 2x
Eb--00-0-0-0-00~-0-0H33-3-3-3-3~~3-1H3-11-1-1-1-1--------------------------------

   2:24
Gb---------------------
Db---------------------
Ab---------------------
Eb—0-0-0-0---0-0-0-0---

   2:28
Gb-------------------------------------------------------------------------------
Db--------------------------------------------------12h131313131312h1313h131313--
Ab------------------------------------------------------------------------------- 2x
Eb--00-0-0-0-00~-0-0H33-3-3-3-3~~3-1H3-11-1-1-1-1--------------------------------

   2:45
Gb--------------------
Db--------------------
Ab------0h1----------- 4x
Eb--0-0-----0-0-0-1---

   2:54
Gb-----------------------------------------------------
Db-----------------------------------------------------
Ab----------------------------------------------------- 2x
Eb--0-0--0--0---0-0--0--0---1-1—-1—-1—--12-12-12-12/---

   3:11
Gb--------------------
Db--------------------
Ab------0h1----------- 4x
Eb--0-0-----0-0-0-1---

   3:20
Gb-----------------------------------------------------
Db-----------------------------------------------------
Ab----------------------------------------------------- 2x
Eb--0-0--0--0---0-0--0--0---1-1—-1—-1—--12-12-12-12/---

   3:38
Gb--------------------------------------------------
Db--------------------------------------------------
Ab--------------------------------------------------
Eb--0-0--0--0---0-3-1-1h3---0-0--0--0---0-3—1—1h3---

Gb--------------------------------------------------
Db--------------------------------------------------
Ab--------------------------------------------------
Eb--0-0--0--0---0-3-1-1h3---0-0--0--0---0-3—1—1h3---

   3:54
Gb-------------------------------
Db-------------------------------
Ab------------------------------- 2x
Eb--00000000000000000000000000---

   4:03
Gb-------------------------------------------------------------------------------
Db--------------------------------------------------12h131313131312h1313h131313--
Ab------------------------------------------------------------------------------- 2x
Eb--00-0-0-0-00~-0-0H33-3-3-3-3~~3-1H3-11-1-1-1-1--------------------------------

   4:20
Gb---------------------
Db---------------------
Ab---------------------
Eb—0-0-0-0---0-0-0-0---

   4:25
Gb-------------------------------------------------------------------------------
Db--------------------------------------------------12h131313131312h1313h131313--
Ab------------------------------------------------------------------------------- 2x
Eb--00-0-0-0-00~-0-0H33-3-3-3-3~~3-1H3-11-1-1-1-1--------------------------------

  4:42
Gb--------------------
Db--------------------
Ab------0h1----------- 4x
Eb--0-0-----0-0-0-1---

Break for 2 Seconds (4:51)

   4:53
Gb-------------------------------
Db-------------------------------
Ab------------------------------- 2x
Eb--00000000000000000000000000---

   5:01
Gb--------------------------
Db--------------------------
Ab--------------------------
Eb--0---0---0---0---0---0---

   5:06
Gb-------------------------------
Db-------------------------------
Ab-------------------------------
Eb--00000000000000000000000000---

   5:10
Gb------------------
Db------------------
Ab------------------
Eb--0---0---0---0---

Break till 5:22

Gb-------------------------------------
Db-------------------------------------
Ab-------------------------------------
Eb--00---00---00---00---00---00---00---

   5:30
Gb------------------------------------
Db------------------------------------
Ab------------------------------------
Eb—11111111111111111111111111111111---

   5:35
Gb----------------------
Db----------------------
Ab----------------------
Eb--00---00---00---00---

   5:40
Gb------------------------------------
Db------------------------------------
Ab------------------------------------
Eb—11111111111111111111111111111111---

   5:44
Gb----------------------
Db----------------------
Ab----------------------
Eb—-00---00---00---00---

   5:48
Gb---------------------
Db---------------------
Ab---------------------
Eb—-0--0—-0--0—-0--0---

   5:51
Gb---------------------------------------------
Db---------------------------------------------
Ab--------------------------------------------- 4x
Eb—-00--00--00--00—-00—-00—-00--00--00--00 ~---

   6:09
Gb------------------------------------
Db------------------------------------
Ab------------------------------------
Eb—11111111111111111111111111111111---

   6:13
Gb---------------
Db---------------
Ab---------------
Eb—-0--0—-0--0—--

   6:18
Gb-------------------------------------------------------------------------------
Db--------------------------------------------------12h131313131312h1313h131313--
Ab------------------------------------------------------------------------------- 2x
Eb—-0-0-0-0—0-0-0-0—3-3-3-3-3-3-3-3-11-1-1-1-1-----------------------------------

   6:35
Gb---------------------
Db---------------------
Ab---------------------
Eb—0-0-0-0---0-0-0-0---

6:39
Gb-------------------------------------------------------------------------------
Db--------------------------------------------------12h131313131312h1313h131313--
Ab------------------------------------------------------------------------------- 2x
Eb—-0-0-0-0—0-0-0-0—3-3-3-3-3-3-3-3-11-1-1-1-1-----------------------------------

     6:56
Gb--------------------
Db--------------------
Ab------0h1----------- 4x
Eb--0-0-----0-0-0-1---
  development and support by
dmitry ivanov