rock
 
|tablatures   |lyrics   |discussion forums   |more tabs @ XGuitar.com

Metallica tabs

Seek And Destroy guitar tab

From: adamkp@rs6108.ecs.rpi.edu (Peter Adamkovics)

SEEK & DESTROY


G5	x55xxx
A5	x77xxx
C5	xx55xx
D5	xx77xx
F#5	xx46xx
F5	xx35xx

G5(V)	xx57xx
A	x022xx


Riff A.  (Play 8 times)


e|| ---------------------------------|--------------------------------- ||
B|| ---------------------------------|--------------------------------- ||
G||.----------7h8-7------------------|-----------------------5---------.||
D||.--------------------------7h8-7--|--------------5-------------7----.||
A|| -0---0-----------------0---------|--0---8---7--------7------------- ||
E|| ---------------------------------|--------------------------------- ||
     ^   ^                 ^            ^   ^   ^        ^
      P.M.                P.M.             P.M.         P.M.


Riff B.

e||---------------------------------||
B||---------------------------------||
G||-9---7-------7-------------------||
D||---------9-------9---8---7sl5----||
A||---------------------------------||
E||---------------------------------||



Rhy. Fig. 1   (Play three times)


                 G5  A5  G5  A5
e|| -----------------------------|---------------------------- ||
B|| -----------------------------|---------------------------- ||
G||.-----------------------------|----------------------------.||
D||.---------------5--7--5--7----|----------------------------.||
A|| ---------------5--7--5--7----|---------------7--5--------- ||
E|| -0--0--0--0------------------|--0--0--0--0----------7--6-- ||
     ^  ^  ^  ^                     ^  ^  ^  ^
        P.M.                           P.M.


Riff C.      (Play twice)

e|| ---------------------------------|--------------------------------- ||
B|| ---------------------------------|--------------------------------- ||
G||.---------------------------------|---------------------------------.||
D||.---------------------------------|-------------------------5-------.||
A|| ---------------------------------|-----------------------------7--- ||
E|| -0---0---0---0---0---0---0---0---|-0---0---0---0---7---6----------- ||




1st, 2nd,  3rd verses  with Riff. C

1st : 	Scanning the scene in the city tonight,
      	We're looking for you to start up a fight.
	There's an evil feeling in our brains,
	but it's nothing new. You know it drives us insane.

Pre-Chorus :  Running.  On our way. Hiding.  You will pay.  Dying 1000 deaths.

Chorus     :  Searching.......   Seek and destroy

2nd :	There is no escape and that's for sure.
	This is the end we won't take anymore.
	Say goodbye to the world you live in
	You've always been taking, but now you're giving.

3rd :	Our brains are on fire with the feeling to kill
	And it wont go away until our dreams are fulfilled,
	there is only one thing on our minds.
	Don't try running away 'cause youre the one we will find.



Rhy. Fig. 2

C5  A          C5  D5   C5
 -----------    -----
 |   |  |  |    |   |    |
 |   |  |  |    |   |    |
 |   |  |  |    |   |    |
/   /  /  /    /   /    /



Rhy. Fig. 3  (Played during chorus)

G5(V)  F#5   F5





Fill 1

e|| ---------------------------------|
B|| ---------------------------------|
G|| ---7--5--------------------------|
D|| ---------7--6--5-----------------|
A|| ------------------7--6--5--------|
E|| ---------------------------------|


Rythm Fill 1

e|| ---------------------------------|
B|| ---------------------------------|
G||.---------------------------------|
D||.--5--------7---------7-----------|
A|| -----0--0------0--0------0-------|
E|| ---------------------------------|


Substitute Rhythm Fill 1 (2nd 3rd and 4th times)

e|| --------------------------|-------------------------|----------------------|
B|| --------------------------|-------------------------|----------------------|
G||.--------------------------|-5-----------------------|-4--------------------|
D||.-5---7------7--------7----|-5--------7--------7-----|-4-------7--------7---|
A|| -0---0---0-----0--0-----0-|----0--0-----0--0------0-|----0--0----0--0---\--|
E|| --------------------------|-------------------------|------------------sl\-|
             ^     ^  ^     ^      ^  ^     ^  ^      ^      ^  ^    ^  ^
           P.M. (all the marked notes)

e| ------------------------------ ||
B| ------------------------------ ||
G| ------------------------------.||
D| ----------3--2--0-------------.||
A| -3--2--0-----------3--0------- ||
E| ------------------------------ ||
    ^  ^  ^
      P.M.

Rhythm Fig.  4

e|------------------|--------------------|------------------|------------------|
B|------------------|--------------------|------------------|------------------|
G|------------------|--------------------|------------------|------------------|
D|------------------|-5------------------|-4----------------|------------------|
A|-5h7---7------7---|-5-------7------7---|-4------7------7--|-------3-2-0------|
E|-----0---0--0---0-|---0--0----0--0---0-|---0--0----0-0--\-|-3-2-0-------3-0--|
                                                         sl\

Rhythm Fill 2         Rhythm Fill 3

e|-----------------|------------------------------|
B|-----------------|------------------------------|
G|-----------------|------------------------------|
D|-9---------------|-4-----------------7sl5-------|
A|-7-----------7---|-4-----------------7sl5-------|
E|---0-0-0-0-0--\--|-2--0--0--0--0--0--5sl3--0--0-|
               sl\




Notation : P.M. = palm mute,  sl = slide, h = hammer on,  p = pull-off

Notes:  To get the correct rhythm, and to figure out what part gets played
	where, I suggest you listen to the song.  When I play this it sounds
	best when played on the bridge pickup on my guitar.  But thats just
	my opinion.  Ohh, almost forgot, I didnt type in the solo, if you want
	it e-mail me, I might type that in too.  I didnt have the time tonight.



-----------------
From: rakers@flash.net


This is the Seek and Destroy Solo. No one ever tabs out solo's except
for a few but this one is right!
If anyone wants any of METALLICA'S solo's from Kill em' all,
Ride the Lightening, Master of puppets, or the Black Album just e-mail me at
rakers@flash.net!


                           Seek and Destroy Solo
                               Kill em' All

Eb---------12--15p12------12--15p12--17p12--15p12------12--15p12--17----
Bb--12/15-------------12---------------------------15-------------------
Gb----------------------------------------------------------------------
Db----------------------------------------------------------------------
Ab----------------------------------------------------------------------
Eb----------------------------------------------------------------------



Eb--12--15--12------12------12------------------------------------------
Bb--------------15------15------15^-------------------------------------
Gb----------------------------------------------------------------------
Db----------------------------------------------------------------------
Ab----------------------------------------------------------------------
Eb----------------------------------------------------------------------



Eb----------------------------------------------------------------------
Bb----------------------------------------------------------------------
Gb----------------------------------------------------------------------
Db----------------------------------------------------------------------
Ab----------------------------------------------------------------------
Eb----------------------------------------------------------------------



Eb--------7--7--10p7------7--7------------------------------------------
Bb--------------------10--------10p7--10p7------------------------------
Gb------------------------------------------9--7-----7--9^--(9)p7-------
Db------------------------------------------------9----------------9----
Ab----------------------------------------------------------------------
Eb----------------------------------------------------------------------



Eb----------------------------------------------------------------------
Bb----------------------------------------------------------------------
Gb----------------------------------------------------------------------
Db----------------------------------------------------------------------
Ab----------------------------------------------------------------------
Eb----------------------------------------------------------------------



Eb--17^----------16--15--14---------------------------------------------
Bb-----------15--------------15--14----------15^^-----------------------
Gb-------15--------------------------16---------------------------------
Db---------------------------------------17-----------------------------
Ab----------------------------------------------------------------------
Eb----------------------------------------------------------------------



Eb-----------------20--20--23--20--18--22--19--19--21--21--17--15-------
Bb------------/23-------------------------------------------------------
Gb----------------------------------------------------------------------
Db----------------------------------------------------------------------
Ab----------------------------------------------------------------------
Eb----------------------------------------------------------------------



Eb--19--16--14--14--17--14--12--16--12--11--14--12\11--9\7--10p7--------
Bb----------------------------------------------------------------10----
Gb----------------------------------------------------------------------
Db----------------------------------------------------------------------
Ab----------------------------------------------------------------------
Eb----------------------------------------------------------------------



Eb--7--10--7------------------------------------------------------------
Bb------------10--7--10p7-----------7-----------------------------------
Gb-------------------------9--7--9-----9--9^--(9)p7--9--7-----7---------
Db---------------------------------------------------------9------------
Ab----------------------------------------------------------------------
Eb---------------------------------------------------------------5------



Eb----------------------------------------------------------------------
Bb----------------------------------------------------------------------
Gb----------------------------------------------------------------7-----
Db-------------7--9p7-----7h9--9--7--9--9^--(9)p7--9--7--(7)^--9--------
Ab--------5/9----------9------------------------------------------------
Eb--5--7----------------------------------------------------------------



Eb----------------------------------------------------------------------
Bb---------7--10p7-------------------------------------12--15^--12------
Gb--9--9^-----------9--7-----7--9^--(9)p7--9^\----/14-------------------
Db------------------------9---------------------------------------------
Ab----------------------------------------------------------------------
Eb----------------------------------------------------------------------



Eb------------------12----------------------12------------------12------
Bb--15p12------15^------15p12--12--15--15^------15p12--15--15^----------
Gb---------14-----------------------------------------------------------
Db----------------------------------------------------------------------
Ab----------------------------------------------------------------------
Eb----------------------------------------------------------------------



Eb------12--15p12-------------------------------------------------------
Bb--15-------------15--12------12--15p12--------------------------------
Gb-------------------------14-------------14--12------12--14p12---------
Db------------------------------------------------14-------------14-----
Ab----------------------------------------------------------------------
Eb----------------------------------------------------------------------



Eb----------------------------------------------------------------------
Bb----------------------------------------------------------------------
Gb--------------------------------------------------------------12------
Db--12----------------------------------12------12--14--12--14----------
Ab------14--12----------12--14--12--14------14--------------------------
Eb--------------15--15--------------------------------------------------



Eb----------------------------------------------12------12--15p12-------
Bb----------------------12------12--15--12--15------15------------------
Gb------12--14--12--14------14------------------------------------------
Db--14------------------------------------------------------------------
Ab----------------------------------------------------------------------
Eb----------------------------------------------------------------------



Eb----------------------------------------------------------------------
Bb--15--12\11--12--15p12------------------------------------------------
Gb------------------------14--12--(12)----------------------------------
Db----------------------------------------------------------------------
Ab----------------------------------------------------------------------
Eb----------------------------------------------------------------------
  development and support by
dmitry ivanov