rock
 
|tablatures   |lyrics   |discussion forums   |more tabs @ XGuitar.com

Metallica tabs

Ronnie guitar tab

From: Christopher J Rizzo 



METALLICA-RONNIE
Tabber = Chris J. Rizzo

	This is not a complete version on Ronnie, it's missing the chorus.
	If anyone out there has or can figure out the rest of the song and
	wants to append this file, please do so. Thanks.


Main Riff:

     |    |    |    |         |    |    |    |       |    |     |    |
Eb|------------------------|------------------------|----------------------|
Bb|---------------------1--|---------------------5b6|r5------------------1-|
Gb|-----0-2~----0-2~-------|-----0-2~----0-2~----6b7|r6--0-2~----0-2~------|
Db|------------------------|------------------------|----------------------|
Ab|--0-------0-------0-----|--0-------0-------0-----|---------0-------0----|
Eb|------------------------|------------------------|----------------------|

    |   |   |       |
Eb|---3---3-3--------------||
Bb|---3b4-4-4r3p1---1--3~--||
Gb|--------------2---------o|
Db|------------------------o|
Ab|-0----------------------||
Eb|------------------------||

Bridge: The vibrato in this section is very slight.

     |     |     |     |          |     |     |     |
Eb|----------------------------|----------------------------|
Bb|----------------------------|----------------------------|
Gb|-----2~----2~----2~---------|-----2~----2~----2~---------|
Db|----------------------0h2---|----------------------0h2---|
Ab|--0-----0-----0-----3----3--|--0-----0-----0-----3----3--|
Eb|----------------------------|----------------------------|

     |     |     |     |          |    |    |     |
Eb|----------------------------|---------------------------||
Bb|----------------------------|---------------------------||
Gb|-----2~----2~----2~---------|--5----4----------x-x-7----||
Db|----------------------0h2---|--5----4--2-5--5--x-x-7----||
Ab|--0-----0-----0-----3-------|--3----2--2-5--5--x-x-5----||
Eb|----------------------------|----------0-3--3-----------||

Verse:

     |        |      |      |     |        |      |     |
Eb|----------------------------|--------------------------------|
Bb|----------------------------|--------------------------------|
Gb|-----------x-x-9--x-x-9--9--|-----------x-x-9--9--7--7-------|
Db|-----------x-x-9--x-x-9--9--|-----------x-x-9--9--7--7-------|
Ab|--7/10\7~--x-x-7--x-x-7--7--|--7/10\7~--x-x-7--7--5--5--5/10-|
Eb|----------------------------|------------------------5-------|

     |        |      |      |     |        |      |     |
Eb|----------------------------|--------------------------------||
Bb|----------------------------|--------------------------------||
Gb|-----------x-x-9--x-x-9--9--|-----------x-x-9--9--7--7----5--||
Db|-----------x-x-9--x-x-9--9--|-----------x-x-9--9--7--7----5--||
Ab|-\7~-------x-x-7--x-x-7--7--|--7/10\7~--x-x-7--7--5--5----3--||
Eb|----------------------------|------------------------5-------||

Chorus: ?????

     |     |     |     |          |     |     |     |
Eb|----------------------------|----------------------------|
Bb|----------------------------|----------------------------|
Gb|----------------------------|----------------------------|
Db|----------------------------|----------------------------|
Ab|----------------------------|----------------------------|
Eb|----------------------------|----------------------------|

Tabbed by Chris J. Rizzo
cjr68797@pegasus.cc.ucf.edu
06/25/96

==================================================================
Notation:
 x = Mute by gently placing left hand on string(s)
     and striking with pick.
pm = Palm mute.
 ~ = Vibrato or slight string bend (it varies throughout this one).
 / = Slide up.
 \ = Slide Down.
 b = Bend
===================================================================
  development and support by
dmitry ivanov