rock
 
|tablatures   |lyrics   |discussion forums   |more tabs @ XGuitar.com

Metallica tabs

Poor Twisted Me guitar tab

METALLICA - POOR TWISTED ME
===========================

From the album "Load" - Written by Hetfield & Ulrich

Transcribed by Marco (fixxxer@libero.it)


Tune down 1/2 step:

6=Eb    3=Gb            Moderate Rock: 120 BPM
5=Ab    2=Bb
4=Db    1=Eb

Intro: w/dist. & delay
                                b1
||--------|-----------|--------|-----|--------|------------------|--------|
||--------|-----5--0--|--------|--7--|--------|------------5--0--|--------|
||--------|-----5-----|--------|--7--|--------|------------5-----|--------|
||-----7--|--X--5-----|-----7--|-----|-----7--|--X--X---X--5-----|-----7--|
||--------|--X--------|--------|-----|--------|--X--X---X--------|--------|
||-/5-----|--X--------|-/5-----|-----|-/5-----|--X--X---X--------|-/5-----|

       p
|------------------|-------------------|---------------|------------------|
|--5---------------|-------------------|------------5--|------------------|
|--5---------------|-------------------|-----7------5--|------------------|
|--5--7--5---------|----7-----7--X--7--|--X--7---X--5--|----7-----7--X--7-|
|-----------7--5\--|-------------------|---------------|------------------|
|------------------|/5-----5-----------|---------------|/5-----5----------|

           P
|------------------|-------------------|-----------------|----------------|
|-----7------------|-------------------|-----------5--0--|----------------|
|-----7------------|-------------------|-----7-----5-----|------------/7--|
|--X--7---7--5-----|----7-----7--X--7--|--X--7--X--5-----|----7----7--/7--|
|---------------7--|-------------------|-----------------|----------------|
|------------------|/5-----5-----------|-----------------|/5-----5--------|


|-------------------||
|-------------------||
|--7--/5--5---3--2--||
|--7--/5--5---3--2--||
|-------------------||
|-------------------||


   Half Time Feel
   Rhy. Fig 1A (Guitar 2)
||-----------------------|----------------------|-------------------------|
||-----------------------|----5-----------------|-------------------------|
||-----------------------|----5-----------------|-------------------------|
||-7----7--5--7----7--5--|-7-----------------5--|-7----7--5--7----7--5----|
||-0----0-----0----0-----|-0--------------------|-0----0-----0----0-------|
||-----------------------|----------------------|-------------------------|
||
||
|| Rhy. Fig 1 (Guitar 1)
||-----------------------|----------------------|-------------------------|
||-----------------------|----------------------|-------------------------|
||-----------------------|---------7---X--5-----|-------------------------|
||----7-----7-------7----|---------7---X--5-----|----7------7-------7-----|
||-----------------------|----------------------|-------------------------|
||-5-----5-------5-------|-------5--------------|-5------5-------5--------|



||-----------------------|----------------------|-------------------------|
||-----------------------|----------------------|-----5-------------------|
||-----------------------|----------------------|-----5-------------------|
||-7---------------------|-7----7--5--7----7--5-|--7----------------------|
||-0--5------------------|-0----0-----0----0----|--0----------------------|
||-----------------------|----------------------|-------------------------|
||
||
||                h  p
||-----------------------|----------------------|-------------------------|
||-----------------------|----------------------|------------------5------|
||---------7--X--5--7--5-|----------------------|------------7--X--5------|
||---------7--X----------|----7------7-------7--|------------7--X--5------|
||-----------------------|----------------------|-------------------------|
||-------5---------------|-5------5-------5-----|----------5--------------|



||-----------------------|----------------------||
||-----------------------|----------------------|| End Rhy. Fig 1A
||-----------------------|-----5----------------||
||-7------7--5--7---7--5-|--7--5----------------||
||-0------0-----0---0----|--0-------------------||
||-----------------------|----------------------||
||                                              ||
||                                              ||
||                                  b1          ||
||-----------------------|----------------------||
||---------------------5-|-(5)------------------|| End Rhy. Fig 1
||-----------------/5--5-|-(5)---7---7---7--5\--||
||----7------7--X--/5--5-|-(5)---7---7---7--5\--||
||-----------------------|----------------------||
||-5------5--------------|----------------------||



Verses:

  Guitars 1 & 2
||--------------|---------------------|--------------|
||--------------|---------------------|--------------|
||*-------------|---------------------|--------------|
||*----7-----7--|---------------------|-----7-----7--|
||--------------|---------------------|--------------|
||--5-----5-----|---------------------|--5-----5-----|
                 1. Oh poor twisted me_____________
                 2. See additional lyrics

                      (guitar 2 out)
|-------------------|---------------|
|-------------------|---------------|
|-------------------|---------------|
|-------------------|-----7------7--|
|-------------------|---------------|
|-------------------|--5------5-----|
  Oh poor twisted me______________


 Guitar 3  w/dist. & slide
|----------------------|---------------------|----------------------------|
|----------------------|---------------------|----------------------------|
|----------------------|---------------------|-----------2--/-------------|
|-----------7-----(7)--\--5------------------|-----------2--/-------------|
|-----------7-----(7)--\--5------------------|----------------------------|
|----------------------|---------------------|----------------------------|
|I feast on sympathy_____________       I chew on surfer_______________
|
|Guitar 1
|----------------------|---------------------|----------------------------|
|----------------------|---------------------|----------------------------|
|----------------------|---------------3--3--|-(3)--5--5---------3--------|
|----------------------|-----5-----5---3--3--|-(3)--5--5---------3--------|
|----------------------|---------------------|----------------------------|
|--------------X---5---\--3-----3------------|----------------------------|


                                  * w/guitar's vol. knob
|----------------------|---------------------|----------------------------|
|----------------------|---------------------|----------------------------|
|-/5-------------------|-------5-->*---------|----------------------------|
|-/5-------------------|-------5-->*---------|----------------------------|
|----------------------|---------------------|----------------------------|
|----------------------|---------------------|----------------------------|
|            Yeah I chew on agony________          Swallow whole the pain
|
|
|----------------------|---------------------|----------------------------|
|----------------------|---------------------|----------------------------|
|----------------3--3--|--5--5---------------|----------------------------|
|-----5-----5----3--3--|--5--5-----7------7--|----------------------------|
|----------------------|---------------------|----------------------------|
|--3-----3-------------|--------5------5-----|----------------------1--/--|


                           Rhy Fill 1 -----------|    (Guitar 3 Out)
|------------------------|--------------------------|---------------------|
|------------------------|--------------------------|---------------------|
|------------------------|--------------2--/--------|---------------------|
|------------------------|--------------2--/--------|---------------------|
|------------------------|--------------------------|---------------------|
|------------------------|--------------------------|---------------------|
|                   But         oh it's too good to   be________________
|
|
|------------------------|--------------------------|---------------------|
|------------------------|--------------------------|-----------------7/--|
|------------------------|------5--5--5--5--5--5--5-|--/7-----------------|
|-----7------7--7---7--7-|--7---5--5--5--5--5--5--5-|--/7-----------------|
|------------------------|--------------------------|---------------------|
|-/5-----5------5---5--5-|--5-----------------------|---------------------|


 Guitar 1  (Rhy. Fig 2)     let ring -|                     End Rhy. Fig 2
|------------------------|-------------------|----------------------------|
|--/5--------------------|-----12------------|----------------------------|
|------------------------|---------12---12\--|-/9-9-9-9-9-9-9-9-9-9-\-----|
|------------------------|-/12----------12\--|-/9-9-9-9-9-9-9-9-9-9-\-----|
|------------------------|-------------------|----------------------------|
|------------------------|-------------------|----------------------------|
    that all this misery____         just for  oh poor twisted me________


|--------------------------------------------------------------------------
|1.
|-----------------------|---------------|---------------------------------|
|-----------------------|------------5--|---------------5--------5--------|
|-----------------------|------7--X--5--|---------------5--------5--------|
|-----7-----7--------7--|------7--X--5--|-----7-----7------7--5-----------|
|-----------------------|---------------|---------------------------------|
|-/5-----5--------5-----|----5----------|--5-----5------------------------|


---------------------------------------------------------------------------

|-----------------------------------|---------------------|---------------|
|-------5--------5--X--7--5--7---5--|---------------------|-----------5---|
|-------5--------5--X--7--5--7---5--|---------------------|----7---X--5---|
|-7--5-----7--5---------------------|-----7-----7-------7-|----7---X--5---|
|-----------------------------------|---------------------|---------------|
|-----------------------------------|--5-----5-------5----|--5------------|
                       Ooh             yeah                 Poor twisted me

------------------------------------------------
                                               |
|----------------------|----------------------||
|----------------------|----------------------||
|---------------/7--7--|-(7)--/5--5----3--3--*||
|-----7-----7---/7--7--|-(7)--/5--5----3--3--*||
|----------------------|----------------------||
|-/5-----5-------------|----------------------||


|----------------------
|2.             b1           p    b1
|------------------|--------------------|---------------------------------|
|---------------8--|--8--8--8--------8--|--------------------------5------|
|---------------7--|--7--7--7--5--7--5--|-----------------X--5-----5------|
|-----7-----7------|--------------------|-----7-----7-----------7---------|
|------------------|--------------------|---------------------------------|
|-/5-----5---------|--------------------|--5-----5------------------------|
                                  yeah________________

       h
|------------------------|
|-(5)-------5------------|
|-(5)-------5---5--------|
|-----5--7--------7--7\--|
|------------------------|
|------------------------|


Bridge:

 Rhy. Fig 3 (Guitar 1)  Riff A (Guitar 2)
|--------------------------------------|----------------------------------|
|--------------------------------------|----------------------------------|
|-/12-----12--11-/-12--12--12--12--12--|-11-/-12-12-12-12-12-12-12-12-14--|
|--------------------------------------|----------------------------------|
|-/10-----10---9-/-10--10--10--10--10--|--9-/-10-10-10-10-10-10-10-10-12--|
|--------------------------------------|----------------------------------|
          To finally reach the shore                survive the storm


|----------------------------------|--------------------------------------|
|----------------------------------|--------------------------------------|
|-11-/-12-12-12-12-12-12-12-12-12--|-11-/-12-12-12-12-12-12---11--10------|
|----------------------------------|--------------------------------------|
|--9-/-10-10-10-10-10-10-10-10-10--|--9-/-10-10-10-10-10-10----9---8------|
|----------------------------------|--------------------------------------|
       Now you're bare and cold                The sea was warm

                                     End Rhy. Fig 3 / Riff A  (Guitar 2 Out)
|-----------------------------------|-------------------------------------|
|-----------------------------------|-------------------------------------|
|--9--9--9--9--9--8-/-9--9--9--9--9-|--8-/-9--9--9--9--9--9--9--9--9--9---|
|-----------------------------------|-------------------------------------|
|--7--7--7--7--7--6-/-7--7--7--7--7-|--6-/-7--7--7--7--7--7--7--7--7--7---|
|-----------------------------------|-------------------------------------|
      so warm                  you bathe        your soul again_______


Guitar Solo:

Half time feel

 w/Rhy. Fig 1 Guitar 3                 b1/4
|-----------|------------5--5\--|-----------------|---------------------X-|
|-5---------|---------5--5--5\--|--5---(5)--------|--------/10-\--3-/-5-X-|
|-5---------|-----5---5---------|--5---(5)--------|-----5-----------------|
|-----7--5--|--7----------------|-----------7--5--|--7--------------------|
|-----------|-------------------|-----------------|-----------------------|
|-----------|-------------------|-----------------|-----------------------|
                     Baby again and again, again      yeah,     yeah.


  b1       b1            b1     b1       b1      b1      b1
|----------------------------|-----5--5------5---5---5---5~~--|
|----5--5----------5--5------|--8--------8-------8-------8~~--|
|-7--------7~~--7--------7~~-|--------------------------------|
|----------------------------|--------------------------------|
|----------------------------|--------------------------------|
|----------------------------|--------------------------------|


 Guitar 3

  b1          b1    b1    b1    b1       b1  b1/2  b1
|----5-----5-----------------------5--|-----------------------------------|
|-8-----8-----8--5-----5-----5-----5--|-----------------------------------|
|-------------------7-----7-----7-----|--7---7---7---7---5----------------|
|-------------------------------------|---------------------7--7---7~~----|
|-------------------------------------|-----------------------------------|
|-------------------------------------|-----------------------------------|
|                                                                         |
|                                                                         |
|Guitar 1                                                                 |
|-------------------------------------|-----------------------------------|
|-------------------------------------|-----------------------------------|
|-------------------------------------|-----------5-----------------------|
|-----7------7---------------------7--|-----------5-----------------------|
|-------------------------------------|-----------------------------------|
|-5------5---------------------5------|-------5----------------------0----|



|----------------8\------------------|------------------------------------|
|-------8--------8\------------------|------------------------------------|
|-------8--------8\------------------|------------------------------------|
|-/10-------10-----------------------|------------------------------------|
|------------------------------------|------------------------------------|
|------------------------------------|------------------------------------|
|                                                                         |
|                                                                         |
|                                                                         |
|-----------------------------8---8--|--8------------8---8---8------------|
|-------------------8--8--8---8---8--|--8--8--8--8---8---8---8--8--8--8---|
|-------------------8--8--8--10--10--|-10--8--8--8--10--10--10--8--8--8---|
|-----10-----10----------------------|------------------------------------|
|------------------------------------|------------------------------------|
|-/8------8--------------------------|------------------------------------|


                         p             p          p               p
|---------------------------------|---------------------------------------|
|------8------8--8--8--10--8------|--10--8------10--8------8--------------|
|------8------8--8--8--10--8------|--10--8------10--8------8--------------|
|-/10-----10------------------10--|---------10---------10-------7---5-----|
|---------------------------------|------------------------------------7--|
|---------------------------------|---------------------------------------|
|
|
|
|---------------------------------|---------------------------------------|
|---------------------------------|---------------------------------------|
|---------------------------------|---------------------------------------|
|-----10-----10-------------------|--------------------------X--X--X------|
|---------------------------------|--------------------------X--X--X------|
|-/8------8-----------------------|--------------------------X--X--X--1-0-|


 Guitar 3     b1/4     p                     b1/4     p
|------------------------------|------------------------------|
|-------7--5--(5)--------------|-------7--5--(5)--------------|
|-5-----7--5--(5)--------------|-5-----7--5--(5)--------------|
|----7-------------7--7--5-----|----7-------------7--7--5-----|
|---------------------------7--|---------------------------7--|
|------------------------------|------------------------------|

                          b1
|----------------|--------------5-----5--------------|---------|
|-5---5---5---5--|--5--5-----5-----8-----8--5--------|---------|
|-5---5---5---5--|--5--5--7--------------------7--5--|---------| End half
|----------------|-----------------------------------|--5~~~~--| time feel.
|----------------|-----------------------------------|---------|
|----------------|-----------------------------------|---------|


Bridge:

 Rhy. Fig 3 (Guitar 1)  Riff A (Guitar 2)
|--------------------------------------|----------------------------------|
|--------------------------------------|----------------------------------|
|-/12-----12--11-/-12--12--12--12--12--|-11-/-12-12-12-12-12-12-12-12-14--|
|--------------------------------------|----------------------------------|
|-/10-----10---9-/-10--10--10--10--10--|--9-/-10-10-10-10-10-10-10-10-12--|
|--------------------------------------|----------------------------------|
          To finally reach the shore                survive the storm


|----------------------------------|--------------------------------------|
|----------------------------------|--------------------------------------|
|-11-/-12-12-12-12-12-12-12-12-12--|-11-/-12-12-12-12-12-12---11--10------|
|----------------------------------|--------------------------------------|
|--9-/-10-10-10-10-10-10-10-10-10--|--9-/-10-10-10-10-10-10----9---8------|
|----------------------------------|--------------------------------------|
       Now you're bare and cold                The sea was warm

                                     End Rhy. Fig 3 / Riff A  (Guitar 2 Out)
|-----------------------------------|-------------------------------------|
|-----------------------------------|-------------------------------------|
|--9--9--9--9--9--8-/-9--9--9--9--9-|--8-/-9--9--9--9--9--9--9--9--9--9---|
|-----------------------------------|-------------------------------------|
|--7--7--7--7--7--6-/-7--7--7--7--7-|--6-/-7--7--7--7--7--7--7--7--7--7---|
|-----------------------------------|-------------------------------------|
      so warm                  you bathe        your soul again_______



Half Time Feel

Guitar 1: w/Rhy. Fig 2

D                               C
/       /       /       /       /       /       /       /
                                Good to feel, my friend__

                                w/Rhy. Fill 2
G                               A5
/       /       /       /       /   /   /       /   /   /
_________________________________              Oh, woe is


w/Rhy. Fig 2
D                               C
/       /       /       /       /       /       /       /
me_________________               Such a burden to be_____


G5                              E
/       /       /       /       /       /       /       /
___                             oh, poor twisted me______


 w/Rhy. Fig 1A                                                 h
|-----------------------|----------------|--------------------------------|
|-----------------------|-------------5--|----------------5-----5---5-----|
|-----------------------|------7---X--5--|----------------5-(5)-7---------|
|-----7-----7--------7--|------7---X--5--|-----7------7-------------------|
|-----------------------|----------------|--------------------------------|
|-/5-----5--------5-----|---5------------|-/5-----5-----------------------|
_________________________   Yeah___ yeah, yeah_____________



 let ring                h
|--5---7---5---5---5---------|-----------------------|--------------------|
|--5-------5---5---5---------|-----------------------|----------------0---|
|--7-------7---7---7--(5)-7--|-----------------------|------7---X--5------|
|----------------------------|-----7-----7--------7--|------7---X--5------|
|----------------------------|-----------------------|--------------------|
|----------------------------|--5-----5--------5-----|---5----------------|
           Yo, poor twisted me__________       Yeah___________



                      b1    b1      p
|------------------------|---------------|--------------||
|---------------------7--|--7------------|--------------||
|--------------X-X-X--7--|--7---5--------|--------------||
|-----7-----7--X-X-X-----|---------7--5--|-----7-----7--||
|------------------------|---------------|--------------||
|--5-----5---------------|---------------|--5-----5-----||
        Oh_______     yo__  yo___ poo twisted me_______


Additional Lyrics:

2. Poor mistreated me
   Poor mestreated me.
   I drown without a sea.
   Lungs filled with sorrow,
   Lungs filled with misery.
   Inhaling the deep, dark blue.
   Woe, woe is me.
   Such a burden to be
   The poor mistreated me, yeah.
  development and support by
dmitry ivanov