rock
 
|tablatures   |lyrics   |discussion forums   |more tabs @ XGuitar.com

Metallica tabs

Overkill guitar tab

Tabs for


Overkill
written by: Kilmster, Clarke, Taylor
as performed by Metallica
on the Until It Sleeps single
tab by nico de nooijer


tune all guitars down 1/2 step
1)
Db-----9-9-9--9-9-9-9--9-9-9--9-9-9-9
Ab-----7-7-7--7-7-7-7--7-7-7--7-7-7-7
Eb--///0-0-0--0-0-0-0--0-0-0--0-0-0-0
drum and bass intro into this


2)
Gb--7--9/7--9/7--9/7-------------
Db--5--7/5--7/5--7/5--7/5--7/5--5
Ab--------------------5/3--5/3--3
Eb-------------------------------
verse


3)
Gb------7--------7/9------7--------7/9-----------
Db------5--------5/7------5--------5/7--5--7/5--7
Ab--------------------------------------3--5/3--5
Eb--0-0----0-0-0------0-0----0-0-0---------------
  pm...    .....      ...    .....
more verse
play twice


4)
Gb---------------2
Db-----4-2-4-----0
Ab--4--2-0-2--4---
Eb--2---------2---
"Overkill"


4)
Db-----7--5--5-4-5-4--
Ab--2--5--3--3-2-3-2-2
Eb--0----------------0
end riff (and under solo)
  development and support by
dmitry ivanov