rock
 
|tablatures   |lyrics   |discussion forums   |more tabs @ XGuitar.com

Metallica tabs

Nothing Else Matters Into guitar tab

e ------------------|-------------------7----------------|-
b -------7--------5-|-------------------8----------------|-
g -------7--------5-|----------------9-------------------|-
D ----7--------5----|-------------9----------------------|-
A -5--------3-------|----------7-------------------------|-
E ------------------|-0----------------------------------|-

e ------------------|-------------0----|----------0-------|-
b ----7--------5----|-------3------2---|-------0-----0----|-
g -----7--------5---|-------4-------2--|----0-----------0-|-
D ------7--------5--|----5-------------|------------------|-
A -5--------3-------|----------2-------|------------------|-
E ------------------|-3----------------|-0----------------|-

e ----------0-------|
b -------0-----0----|     {The Intro, some quick slides early on,
g ----0-----------0-|     {but very steady in rhythm trough out.
D ------------------|     {let fingerings ring as long as possible.
A ------------------|
E -0----------------|
  development and support by
dmitry ivanov