rock
 
|tablatures   |lyrics   |discussion forums   |more tabs @ XGuitar.com

Metallica tabs

No Leaf Clover bass tab

No Leaf Clover
written by Metallica
as performed live with the San Francisco Symphony
tab by Andrew Jamieson; jjamieson@home.com
tune down 1/2 step

Symphony Intro/Guitar Intro

1)
Gb-----------------------       -----------------------
Db----------------------- three -----------------------
Ab----2~--3~2~----------- times ---------------2~--3~2~
Eb--0---0-----0-0-0-0-0-0 then  -2-2-2-2-2-2-0---0-----
Main Riff and also solo backing


2)
Gb-----------------------------------------------------------------
Db-----------------------------------------------------------------
Ab--0--2---2~--3~2~-3--2---2~--3~2~-0--2-----3--2-2-2-2-2-2-2-2-2-2
Eb-------0---0-----------0---0------------3------------------------
Verse


3)
Gb-----------------------------------------------------
Db-----------------------------------------------------
Ab-------------0--0--0--0--0---2-2-2-2-2--0--0--0--0--0
Eb--0-0-0-0-0------------------------------------------
No bass for first part of chorus... Bass comes in with drums

4)
Gb------------------------------------------------------------------
Db--------------------------------------------0-0-0-0---------------
Ab--3-3-3-3-3--2-2-2-2-2-------------3-3-3-3-----------2--2--2--2--2
Eb------------------------0-0-0-0-0---------------------------------
"It's coming your way" (3:05)

5)
Gb------------------------------------------------------------------------------
Db------------------------------------------------------------------------------
Ab---------------------------------------------2--------------------------------
Eb--0-0-0--0-0-0--0-0-0-3--0-0-0--0-0-0--0-0-0----0-0-0--0-0-0--0-0-0-3--0-3-0-3
Breakdown

How its played in order

Fig1 x1
Fig2 x2
Fig3 x2
Fig2 x1
Fig3 x2
Fig4 x1
Fig1 x2
Fig5 x4
Fig3 x6
Fig5 x1
  development and support by
dmitry ivanov