rock
 
|tablatures   |lyrics   |discussion forums   |more tabs @ XGuitar.com

Metallica tabs

My World guitar tab

Written by Hetfield/Ulrich/Hammett/Rock

available on "St. Anger" album

tabbed by Tero Saikkonen from Finland!!!
tsslayer@luukku.com


Guitars Dropped-C tuning (Strings on D) 
(like all songs in "st. Anger" album, except "Dirty Window"
(D# dropped-C#) "Invisible Kid"(A# dropped-G#)
and "The Unnamed Feeling"(C dropped-A#))



INTRO               _______________________________________________
                   |1,2,3    | |4th time                         | |
                   |         | |   P.M.  |__|  |__|  |__|   7 times|
|----------------------------| |---------------------------------| |
|----------------------------|o|---------------------------------|o|
|------------------(3)*------| |---------------------------------| |
|------------------(0)*------| |---------------------------------| |
|-0-0---0-0-0-0-----0--------|o|-0-0-0-3-0-0-5-0-0-0-0-0-0-3-5~--|o|
|-0-0---0-0-0-0-----0--------| |-0-0-0-3-0-0-5-0-0-0-0-0---------| |
                    * Play only 3rd time.


 P.M.__________________|
|----------------------------------| -2-
|----------------------------------|  T
|----------------------------------|  I
|----------------------------------|  M
|-0-----3-----5-----0-----0-3-5~---|  E
|-0-----3-----5-----0--------------|  S


    P.M.  |__|  |__|  |__| 
|---------------------------------|---------------------------------| -2-
|---------------------------------|---------------------------------|  T
|---------------------------------|---------------------------------|  I
|---------------------------------|---------------------------------|  M
|-0-0-0-3-0-0-5-0-0-0-0-0-0-3-5~--|-0-----3-----5-----3-----0---3---|  E
|-0-0-0-3-0-0-5-0-0-0-0-0---------|-0-----3-----5-----3-----0---3---|  S



VERSE
("The motherfuckers got in my head...")

    P.M.  |__|  |__|  |__| 
|---------------------------------|---------------------------------| -2-
|---------------------------------|---------------------------------|  T
|---------------------------------|---------------------------------|  I
|---------------------------------|---------------------------------|  M
|-0-0-0-3-0-0-5-0-0-0-0-0-0-3-5~--|-0-----3-----5-----3-----0---3---|  E
|-0-0-0-3-0-0-5-0-0-0-0-0---------|-0-----3-----5-----3-----0---3---|  S



("It_s my world now...")

GTR I
|---------------------------------|---------------------------------|
|---------------------------------|---------------------------------|
|---------------------------------|---------------------------------|
|-0-------------------------------|---------------------------------|
|-0-------------------------------|---------------------------------|  -2-
|-0-------------------------------|---------------------------------|   T
|                                 |                                 |   I
|GTR II played only 2nd time      |                                 |   M
|---------------------------------|---------------------------------|   E
|---------------------------------|---------------------------------|   S
|---------------------------------|---------------------------------|
|-10------------------------------|---------------------------------|
|-8-------------------------------|---------------------------------|
|---------------------------------|---------------------------------|



("Mama, why it_s rainin_ in my room...")

    P.M.  |__|  |__|  |__| 
|---------------------------------|---------------------------------| -4-
|---------------------------------|---------------------------------|  T
|---------------------------------|---------------------------------|  I
|---------------------------------|---------------------------------|  M
|-0-0-0-3-0-0-5-0-0-0-0-0-0-3-5~--|-0-----3-----5-----3-----0---3---|  E
|-0-0-0-3-0-0-5-0-0-0-0-0---------|-0-----3-----5-----3-----0---3---|  S



               ("It_s my world, you can_t have it...")

|---------------------------------|---------------------------------| -3-
|---------------------------------|---------------------------------|  T
|---------------------------------|---------------------------------|  I
|---------------------------------|---------------------------------|  M
|-0-----3----5--------------------|---------------------------------|  E
|-0-----3----5--------------------|---------------------------------|  S


|---------------------------------|
|---------------------------------|
|---------------------------------|
|---------------------------------|
|-6-----3----0--------------------|
|-6-----3----0--------------------|



CHORUS
                                  ("I_m out of my head, out of my head...")
|-----------------------------|4|-----------------------------|4|
|-----------------------------|T|-----------------------------|T|
|-----------------------------|I|-----------------------------|I|
|-----------------------------|M|-----------------------------|M|
|-3-0----0----0-3-0-5----6-\--|E|-3-0----0----0-3-0-5----6-\--|E|
|-3-0----0----0-3-0-5----6-\--|S|-3-0----0----0-3-0-5----6-\--|S|



    P.M.  |__|  |__|  |__| 
|---------------------------------| -4-
|---------------------------------|  T
|---------------------------------|  I
|---------------------------------|  M
|-0-0-0-3-0-0-5-0-0-0-0-0-0-3-5~--|  E
|-0-0-0-3-0-0-5-0-0-0-0-0---------|  S


VERSE
("Who_s in charge of my head today...")

    P.M.  |__|  |__|  |__| 
|---------------------------------|---------------------------------| -2-
|---------------------------------|---------------------------------|  T
|---------------------------------|---------------------------------|  I
|---------------------------------|---------------------------------|  M
|-0-0-0-3-0-0-5-0-0-0-0-0-0-3-5~--|-0-----3-----5-----3-----0---3---|  E
|-0-0-0-3-0-0-5-0-0-0-0-0---------|-0-----3-----5-----3-----0---3---|  S


("It_s my time now...")

GTR I
|---------------------------------|---------------------------------|
|---------------------------------|---------------------------------|
|---------------------------------|---------------------------------|
|-0-------------------------------|---------------------------------|
|-0-------------------------------|---------------------------------|  -2-
|-0-------------------------------|---------------------------------|   T
|                                 |                                 |   I
|GTR II played only 2nd time      |                                 |   M
|---------------------------------|---------------------------------|   E
|---------------------------------|---------------------------------|   S
|---------------------------------|---------------------------------|
|-10------------------------------|---------------------------------|
|-8-------------------------------|---------------------------------|
|---------------------------------|---------------------------------|


("Look out motherfuckers here i come...")

    P.M.  |__|  |__|  |__| 
|---------------------------------|---------------------------------| -4-
|---------------------------------|---------------------------------|  T
|---------------------------------|---------------------------------|  I
|---------------------------------|---------------------------------|  M
|-0-0-0-3-0-0-5-0-0-0-0-0-0-3-5~--|-0-----3-----5-----3-----0---3---|  E
|-0-0-0-3-0-0-5-0-0-0-0-0---------|-0-----3-----5-----3-----0---3---|  S


               ("It_s my world, you can_t have it...")

|---------------------------------|---------------------------------| -3-
|---------------------------------|---------------------------------|  T
|---------------------------------|---------------------------------|  I
|---------------------------------|---------------------------------|  M
|-0-----3----5--------------------|---------------------------------|  E
|-0-----3----5--------------------|---------------------------------|  S


|---------------------------------|
|---------------------------------|
|---------------------------------|
|---------------------------------|
|-6-----3----0--------------------|
|-6-----3----0--------------------|


CHORUS
                                  ("I_m out of my head, out of my head...")
|-----------------------------|4|-----------------------------|4|
|-----------------------------|T|-----------------------------|T|
|-----------------------------|I|-----------------------------|I|
|-----------------------------|M|-----------------------------|M|
|-3-0----0----0-3-0-5----6-\--|E|-3-0----0----0-3-0-5----6-\--|E|
|-3-0----0----0-3-0-5----6-\--|S|-3-0----0----0-3-0-5----6-\--|S|



|-----------------------------| -8-
|-----------------------------|  T
|-----------------------------|  I
|-----------------------------|  M
|-3-0----0----0-3-0-5----6-\--|  E
|-3-0----0----0-3-0-5----6-\--|  S


("Not only do i not know the answer..."/whispering)
 /half-acoustic/
|-----------------------------| -2-
|-----------------------------|  T
|-----------------------------|  I
|-----------------------------|  M
|-----------------------------|  E
|-3-0----0----0-3-0-5----6\0--|  S

("I don_t even know what the question is...")
 /distortion/
|-----------------------------| -2-
|-----------------------------|  T
|-----------------------------|  I
|-----------------------------|  M
|-3-0----0----0-3-0-5----6-\--|  E
|-3-0----0----0-3-0-5----6-\--|  S



("Not only do i not know the answer..."/whispering)
 /half-acoustic/
|-----------------------------| -2-
|-----------------------------|  T
|-----------------------------|  I
|-----------------------------|  M
|-----------------------------|  E
|-3-0----0----0-3-0-5----6\0--|  S

("I don_t even know what the question is...")
 /distortion/
|-----------------------------| -2-
|-----------------------------|  T
|-----------------------------|  I
|-----------------------------|  M
|-3-0----0----0-3-0-5----6-\--|  E
|-3-0----0----0-3-0-5----6-\--|  S



(Band silence only 1st & 2nd time)

|--------------------------------| -18-
|--------------------------------|  T
|--------------------------------|  I
|-------------------------5--/7--|  M
|-0---0-0-3-0---0-0---0-0-3--/5--|  E
|-0---0-0-3-0---0-0---0-0--------|  S


|----------------| -3-
|----------------|  T
|----------------|  I
|-----------5----|  M
|-0---5-5-5-3----|  E
|-0---0-0-0------|  S


 GTR I
|---------------------------------| 
|---------------------------------|
|---------------------------------|
|-----------------0---------------|
|-0---0-0-3-0---0-0---------------| -4-
|-0---0-0-3-0---0-0---------------|  T
|                                 |  I
|GTR II                           |  M
|---------------------------------|  E
|---------------------------------|  S
|---------------------------------|
|-----------------0---------------|
|-0---0-0-3-0---0-0---3---5---6---|
|-0---0-0-3-0---0-0---3---5---6---|


 GTR I
|---------------------------------|
|---------------------------------|
|---------------------------------|
|---------------------------------|
|-0-3-0-0-0-3-0-0-0-3-0-0-3-2-1---|
|-0-3-0-0-0-3-0-0-0-3-0-0-3-2-1---|
|                                 |
|GTR II                           |
|---------------------------------|
|---------------------------------|
|---------------------------------|
|---------------------------------|
|-0-3-0-0-0-3-0-0-0-3-0-0-3-5-6---|
|-0-3-0-0-0-3-0-0-0-3-0-0-3-5-6---|


("Not only do i not know the answer..."/whispering)
 /half-acoustic/
|-----------------------------| -2-
|-----------------------------|  T
|-----------------------------|  I
|-----------------------------|  M
|-----------------------------|  E
|-3-0----0----0-3-0-5----6\0--|  S

("I don_t even know what the question is...")
 /distortion/
|-----------------------------| -2-
|-----------------------------|  T
|-----------------------------|  I
|-----------------------------|  M
|-3-0----0----0-3-0-5----6-\--|  E
|-3-0----0----0-3-0-5----6-\--|  S



("Not only do i not know the answer..."/whispering)
 /half-acoustic/
|-----------------------------| -2-
|-----------------------------|  T
|-----------------------------|  I
|-----------------------------|  M
|-----------------------------|  E
|-3-0----0----0-3-0-5----6\0--|  S

("I don_t even know what the question is...")
 /distortion/
|-----------------------------| -4- |--------------------|
|-----------------------------|  T  |--------------------|
|-----------------------------|  I  |--------------------|
|-----------------------------|  M  |--------------------|
|-3-0----0----0-3-0-5----6-\--|  E  |-6---3---0----------|
|-3-0----0----0-3-0-5----6-\--|  S  |-6---3---0----------|


THEN PLAY:
             CHORUSRIFF   x 8

THEN:


|---------------------------------------------------------------------|
|---------------------------------------------------------------------|
|---------------------------------------------------------------------|
|---------------------------------------------------------------------|
|-0-------------------------------0-0-------------------------------0-|
|-0-------------------------------0-0---------------x---x---x---x---0-|


 
|---------------------------------------------------------------------| -2-
|---------------------------------------------------------------------|  T
|---------------------------------------------------------------------|  I
|---------------------------------------------------------------------|  M
|-0---3---5---6---5---3---5---6---0-0---3---5---6---5---3---5---3---0-|  E
|-0---3---5---6---5---3---5---6---0-0---3---5---6---5---3---5---3---0-|  S



|---------------------------------------------------------------------|
|---------------------------------------------------------------------|
|---------------------------------------------------------------------|
|---------------------------------------------------------------------|
|-0-------------0-0---------------0-0-------------------------------0-|
|-0-------------0-0---------------0-0---------------x---x---x---x---0-|



|---------------------------------------------------------------------| -2-
|---------------------------------------------------------------------|  T
|---------------------------------------------------------------------|  I
|---------------------------------------------------------------------|  M
|-0---3---5---6---5---3---5---6---0-0---3---5---6---5---3---5---3---0-|  E
|-0---3---5---6---5---3---5---6---0-0---3---5---6---5---3---5---3---0-|  S



|-----------------------------------|
|-----------------------------------|                     
|-----------------------------------|	THE  
|-----------------------------------|	END
|-0-6-----3----0--------------------|                   
|-0-6-----3----0--------------------|   


TABBED BY: T E R O   S A I K K O N E N
contact me to: t s s l a y e r @ l u u k k u . c o m
  development and support by
dmitry ivanov