rock
 
|tablatures   |lyrics   |discussion forums   |more tabs @ XGuitar.com

Metallica tabs

My Friend Of Misery guitar tab

My Friend Of Misery

My Friend Of Misery


Tabbed by : Andrew Bowie (bowie@yoyo.cc.monash.edu.au)
Tuning : E, A, G....e (normal)

These are the "main" parts of MFOM. It should be enough to get started.

    Repeated chord over bass and in some middle parts.
   /
|-----|--------------------------------------------------------|
|-----|--------------------------------------------------------|
|--2--|--------------------------------------------------------|
|--3--|--3-----------3--------------------2-----------2--------|
|--0--|--------5-----------0--------------------3-----------0--|
|-----|--------------------------------------------------------|
         Next part over chord and bass.

|-------------------------------------|----------------------------------|
|-------------------------------------|----------------------------------|
|-------------------------------------|----------------------------------|
|-3-----3-----------3-----3-----------|-----2-----2-----------2-----2/7--|
|----5-----0-----------5-----0--------|--------3-----0-----------3-------|
|-------------------------------------|----------------------------------|
 Verse riff..............................................................

|---------------------------------------------------------------------------------
|---------------------------------------------------------------------------------
|-------------------------------------------4--4----------------------------------
|-------------------2--------7--7--------7--4--4-----------------------2----------
|-4--4--0--2--3--4--2--------7--7--------7-----------4--4--0--2--3--4--2----------
|-2--2--------------0-----0--5--5--------5-----------2--2--------------0-----0----
  Chorus (repeated x2)....................................................

                                                                     x2
---------------------|-----------------------------------------------|
---------------------|--------------5-----------5--------------------|
2--2--3--4-----------|--------5-----------------------7-----5-----7--|
2--2--3--4--2-----2--|--7----------------7---------------------------|
0--0--1--2--2-----2--|-----------------------------------------------|
------------0-----0--|-----------------------------------------------|
....................   Trippy middle intelude (use volume knob to get effect)

    bend               x2
|--/-------------------|
|-10--10-----5--------o|
|------------------5---|
|----------------------|
|---------------------o|
|----------------------|


                     bend
|------------------0/----\-------------------------------------0--|
|------------3-----3------3------------------------------------1--|
|---------2-------------------2---------------------0h2-----2-----|
|----2h3------------------------------------0h2--2----------------|
|-0--------------------------------------0------------------------|
|-----------------------------------------------------------------|
Acoustic after trippy intelude.
  development and support by
dmitry ivanov