rock
 
|tablatures   |lyrics   |discussion forums   |more tabs @ XGuitar.com

Metallica tabs

More I See guitar tab


The More I See
written by Discharge
as performed by Metallica on Garage Inc
tab by nico de nooijer


tune all guitars down 1 1/2 steps (C# tuning)
low to high C#, F#, B, E, G#, c#
bass intro
1)
E--------------------------------2~~~~7-9-7-9-7-9
B------------------------------------------------
F#--2-2-2-2-2-2---2-2-2-2-2-2--------------------
C#--0-0-0-0-0-0---0-0-0-0-0-0-*------------------

*=slide on C# string near the nut


2)
E--------------
B---9\9\8\8\7\6
F#-------------
C#--7\7\6\6\5\4

very lightly touch these strings, do not fret all the way sliding down


3)
B----------------------------
F#--8-7-8-7-8-7--5-2---------
C#--6-5-6-5-6-5--3-0--0-0-0-0

From where I stand I see


4)
B------------------------------
F#--8--------------7-----------
C#--6--0-0-0-0-0---5--0-0-0-0-0

The less I believe


5)
B---------------------------------------------
F#--8----------------------2------------------
C#--6-6-6-6-6-6-6-6-6-6-6--0-0-0-0-0-0-0-0-0-0

solo





  development and support by
dmitry ivanov