rock
 
|tablatures   |lyrics   |discussion forums   |more tabs @ XGuitar.com

Metallica tabs

Mercyful Fate Medley guitar tab

Mercyful Fate Medley - Metallica

Tab by Jabba0910@aol.com


"Satan's Fall"

 Rhy.Fig.1
|-------|-------------------------------|---------------------------|
|-------|-------------------------------|---------------------------|
|-------|-------------------------------|---------------------------|
|-------|-------------------------------|-------------------------5-|
|-------|--------4--------------4-------|-------4-------------/4----|
|--14\--|--0--2-----2--2--0--2-----2--2-|-0--2-----2--2--3-~--------|
        PM ****     **********     ***********     *         sl.


                 ~~~~
|-14--14---14--14-----14-----------|-14------------------------------------|
|-17b-17b--17b-17b-------17p14-17b-|----17p14-----14-16p14-----------------|
|----------------------------------|----------16b----------16p14----14-16b-|
|----------------------------------|-----------------------------16--------|
|----------------------------------|---------------------------------------|
|----------------------------------|---------------------------------------|
|                                                                          |
|                                                                          |
|----------------------------------|---------------------------------------|
|----------------------------------|---------------------------------------|
|----------------------------------|-------------------------4--------2----|
|----------------------------------|-------------------------4--------2----|
|--------4-----------------4-------|----------4--------------2--------0----|
|--0--2-----2---2---0---2-----2--2-|-0--2---------2-----0------------------|
PM ****     *************     ****   ****         *******


  w/Rhy.Fig.1
|------------------------------|-------------------------------|
|-----------14--16--16br--16br-|-16br--------------------------|
|-16p14-----14--16--16br--16br-|-16br--14---------------14--16-|
|-------16---------------------|----------16-~-~-~--16---------|
|------------------------------|-------------------------------|
|------------------------------|-------------------------------|

									   Verse
   hold bend
|--------------------------------------|------------------------------||-------|
|-----.-.-.-.-.-.-.-.-.-.-.-.-.-.-.-.-.|.-.-.-.-.-.-.-.---------------||-------|
|--16b---16-16---16-16---16-16---16-16-|-16-16-16-16-16r14------------||-------|
|--------------------------------------|--------------------16-~-~-~--||-(16)\-|
|--------------------------------------|------------------------------||-------|
|--------------------------------------|------------------------------||-------|

Verse
w/Rhy.Fig.1 (2 times)

They're walking by the night the moon has froxen blue
Long black coats a shelter for the rain, their load must get through
Now bats are leaving their trees, they're joining the call
Seven satanic hell preachesr heading for the hall

Rhy.Fig.2

B5  A5  B5              C5    G5
//  //  //       //     //    //   //    //    //    //   //
        Bring - ing the blood of a new - born child

w/Rhy.Fig.1 (last 2 bars only)
Yeah

w/Rhy.Fig.2                                 F#5
Got to succeed, if not it's Satan's fall____________


"Curse of the Pharoahs"

|-----------------------|-----------------------|-----------------------|
|-----------------------|-----------------------|-----------------------|
|------------5----------|-------5-----7--7-~-~--|------------5----------|
|-5h7--7--7--5--7--7--7-|-7--7--5-----7--7-~-~--|-5h7--7--7--5--7--7--7-|
|-0----0--0-----0--0--0-|-0--0-----0------------|-0----0--0-----0--0--0-|
|-----------------------|-----------------------|-----------------------|
    PM ****     ****      ****     *                   ****     *******


|-----------------------|------------------------|------------------------|
|-----------------------|------------------------|------------------------|
|----------5-----5--4---|-------------5----------|----------5-----7br--5--|
|-7--7--7--5-----5--4---|-7--7--7--7--5--7--7--7-|-7--7--7--5-----7br--5--|
|-0--0--0-----0---------|-0--0--0--0--------0--0-|-0--0--0-----0----------|
|-----------------------|------------------------|------------------------|
  PM ****     *              *     *        ****      ****     *


			      let ring
|--------------------------|-------------------------||---------------------------|
|--------------------------|-------------------------||-o-------------------------|
|-7p5-----------5----------|-------0--------0--------||----------7-----5----------|
|-7p5--7--7--7--5--7--7--7-|----2--------0-----------||-o--------7-----5--7-----7-|
|------0--0--0-----0--0--0-|-3--------2--------------||----0--0-----0-----0--0--0-|
|--------------------------|-------------------3-~-~-||---------------------------|
       PM ****     *******                                 *  *     *        *


                 tr~~~~~
|---------------------------||------------------------------|--------------------------|
|-------------6--5--(6)---o-||------------------------------|--------------------------|
|-------4-----7--5--(7)-----||------------------------------|--------------------------|
|-------4-----------------o-||------------------------------|------------------------2-|
|-0--0-----0----------------||-----4-4-4--4-4-4--4-4-4--4-4-|-4--4-4-4--4-4-4-----4--0-|
|---------------------------||--0--2-2-2--2-2-2--2-2-2--2-2-|-2--2-2-2--2-2-2--0--2----|
PM****     *                       *****  *****  *****  ***   *  *****  *****  *  *


|---------------------------|-------------------------------|
|---------------------------|--------------.-.-.-.----------|
|---------------------------|--------2--4b-------rp2--------|
|---------------------------|-2--4--------------------4-~-~-|
|--------------------2--4---|-------------------------------|
|-----3-------2--5----------|-------------------------------|
|             PM ********                                   |
|                                                           |
|---------------------------|-------------------------------|
|---------------------------|-------------------------------|
|---------------------------|-------------------------------|
|---------------------------|-------------------------------|
|-4---4---4-4-4--4-4-4--4-4-|-4--4-4-4--4-4-4----2-------2--|
|-2---2---2-2-2--2-2-2--2-2-|-2--2-2-2--2-2-2----0-------0--|



 w/Rhy.Fig.3
 ~~~~~~~
|-------------|------------|---19br(19)p17--19br(19)p17--19br(19)p17-|
|-------------|------------|-----------------------------------------|
|-------------|------------|-----------------------------------------|
|-------(4)\--|------------|-----------------------------------------|
|-------------|------------|-----------------------------------------|
|-------------|------------|-----------------------------------------|




                                      1st Verse  w/Rhy.Fig.3 (1 3/4 times)
     hold
     . . . . . . . . . .         ~~~~~~~~~~~~~   sl.
|-19b--19--19--19--19-(19)p17---------|-------------------|-------------------|
|------------------------------19-----|------(19)\--------|-------------------|
|-------------------------------------|-------------------|-------------------|
|-------------------------------------|-------------------|-------------------|
|-------------------------------------|-------------------|-------------------|
|-------------------------------------|-------------------|-------------------|

				          Way out in Egypt in the valley of kings



   AH               AH                AH                 AH
|----------------------------------|------------------------|
|----.-.-.------------.-.-.--------|------------------------|
|--4b----(4)p2--4---4b----(4)p2----|--2---2-----------------|
|--------------------------------4-|---------4p2-----2---4--|
|----------------------------------|--------------4---------|
|----------------------------------|------------------------|

							   where the


   F#5                              F#5  A5        F#5
mummified pharoahs pretend dead in their sleep             a-


|--------------------------|------------------------|----------------------|
|--------------------------|------------------------|----------------------|
|--------------------------|------------------------|----------------------|
|--------------------------|------------------------|----------------------|
|-4--4-4-4--4-4-4-----4--6-|---------------6-6-6--7-|-7------------------9-|
|-2--2-2-2--2-2-2--0--2--4-|-4--4--4-4--4--4-4-4--5-|-5--5--5-5-5--7--9--7-|
  PM *****  *****  *  *      *  *  * *  *  *****         *  *****  *  *
  yeah.                      Don't touch,         never  ever  steal



|---------------------------|------------------------------------||
|---------------------------|------------------------------------||
|---------------------------|------------------------------------||
|---------------------------|------------------------------------||
|-------9--------9--------9-|-11---11-11-11---11-11-11------4----||
|-7--7--7--7--7--7--7--7--7-|--9----9--9--9----9--9--9---0--2--0-||
PM****     ****     ****                                 *******
          un-less     you're   in   for  the   kill

Chorus

|----------------------|-----------------|----------------------|
|----------------------|-----------------|----------------------|
|----------------------|-----------------|----------------------|
|----------2------5--4-|-5--4-------2----|----------2------7--6-|
|-4-----4--0------3--2-|-3--2-------0--2-|-4-----4--0------5--4-|
|-2--0--2------0-------|--------0------0-|-2--0--2------0-------|
PM*******      *                *          *******      *
                        Or you been hit    by the curse    of the


  (end Rhy.Fig.5)
|---------------|----------------------|----------------|
|---------------|----------------------|----------------|
|---------------|----------------------|----------------|
|-7--6--------2-|----------2------5--6-|--5--4-----2----|
|-5--4--0--2--0-|-4-----4--0------3--4-|--3--2-----0--2-|
|----------0----|-2--0--2------0-------|--------0-----0-|
               PM *******      *                *
  pharoahs                              Yes you been hit,

|----------------------|-----------|------------|------------------||
|----------------------|-----------|------------|------------------||
|----------------------|-----------|------------|------------------||
|----------2------7--6-|--6/9---9--|--8---------|------------------||
|-4-----4--0------5--4-|--4/7---7--|--6---------|----------------2-||
|-2--0--2------0-------|-----------|------------|-------------X\-0-||
PM*            *
 and the curse is on you.                                    Hit me.



  Rhy.Fig.6
||---------------------------|------------------------|------------------------|
||-o-------------------------|------------------------|------------------------|
||---------------------------|------------------------|------------------------|
||-o-----------------------2-|----------4--2----------|----------------------2-|
||----4--------4--5--------0-|-4--------2--0--0-0-0-2-|-4--------4--5--------0-|
||----2--2-2-2-2--3--3-3-3---|-2--2-2-2-------------0-|-2--2-2-2-2--3--3-3-3---|
      PM *****       *****        *****       *****        *****       *****


 1.=======================\ 2.===================
|-------------------------||---------------------|
|-----------------------o-||---------------------|
|-------------------------||---------------------|
|--------------4---2----o-||------------4--2-----|
|--4-----------2---0--2---||--4---------2--0--2--|
|--2---2-2-2----------0---||--2--2-2-2--------0--|
    PM *****                     *****


Guitar Solo
|----------------------------------|----------------------------------|
|----------------------------------|----------------------------------|
|----------------------------------|---------------------11--9---X----|
|-----------------9----------------|---------------------11--9---X----|
|-/11--11--11-11--9---11-~--~-9h11-|-11-11-11-11--11-11-------------9-|
|----------------------------------|----------------------------------|
|                                                                     |
|Rhy.Fig.7                                             (end Rhy.Fig.7)|
|----------------------------------|----------------------------------|
|----------------------------------|----------------------------------|
|----------------------------------|----------------------4---4---4---|
|----------------------------------|-6--6--6--6--6--6-----4---4---4---|
|-4-4-4-4-4-4-4-4-4-4-4-4-4-4-4-4--|-4--4--4--4--4--4--0--2---2---2---|
|----------------------------------|----------------------------------|
PM*******************************



 w/Rhy.Fig.7 (2 1/2 times)                           AH~~~
|----------------------------------|--------9-------------|-----------------------------|
|----------------------------------|-9--------12p9----9---|---------------9b------------|
|-------------------9h10-----------|-9--11b--------11---9-|---------------9b------------|
|-11p9-11--11-11-11------11--11-11-|----------------------|-/11--11-11-11----11-11-11-11|
|----------------------------------|----------------------|-----------------------------|
|----------------------------------|----------------------|-----------------------------|



|--------------------------------------|--------------------------------|
|-----11--------11p9-------------------|--------------9-------------9---|
|-11--11--9-11--11p9----9-~-~-9--10-10-|-11p9----9--9----11p9----9----9-|
|--------------------11----------------|------11--------------11--------|
|--------------------------------------|--------------------------------|
|--------------------------------------|--------------------------------|




					         w/Rhy.Fig 6 both 1 3/4 times)
 w/Rhy.Fill 2                          tr~~~~~~~~~~~~~~~~~~~~~~
|-----------------9---------------------------|---------------------------|
|---------------9---12p9---------------14(17)-|-------------------(14)h17-|
|-11p9----9-11b----------11p9----9b-----------|---------------------------|
|------11---------------------11----11--------|---------------------------|
|---------------------------------------------|---------------------------|
|---------------------------------------------|---------------------------|

	Rhy. Fill 2
|--------------------------|
|--------------------------|
|----------------4--4--x---|
|-6-6-6-6-6-6----4--4--x---|
|-4-4-4-4-4-4-0--2--2--x-2-|
|------------------------0-|

   w/ trem bar effects . . . . . . . . . . . . . . . . . . . . . .
|-------------.-.-.-.-.------|-----------------------------------|
|--------(17)b---------r--16-|-----------------------------------|
|-------------------------16-|---------------h16p14h16p14h16-----|
|-------------------------16-|-----------------------------------|
|----------------------------|-----------------------------------|
|----------------------------|-----------------------------------|

									trem pick
. . . . . . . . . ~~~~. . . . . . . . . . . . . . . . . . . . . .     sl.
|----------------------------|-17-17-17-17-17---17----------------|-17\\\14-|
|----------------------15-15-|-15-15-15-15-15---17-17-17-17-17-17-|-17\\\14-|
|-14h16p14---14-14-----------|------------------------------------|---------|
|----------------------------|------------------------------------|---------|
|----------------------------|------------------------------------|---------|
|----------------------------|------------------------------------|---------|


  tr~~~~~ . . . . . . . . . . . . . . . . .     sl.
|-------------------|---------------------|-------------------------|
|-14-(17)-----------|---------------------|-------------------------|
|-----------14-14p0-|---11----------11----|-(11)\-------------------|
|-------------------|---------------------|-------------------------|
|-------------------|---------------------|-------------------------|
|-------------------|---------------------|-------------------------|
|                                                                   |
|                     PM *****                 ****         ****    |
|-------------------|---------------------|-------------------------|
|-------------------|---------------------|-------------------------|
|-------------------|-------------------2-|----------4------------5-|
|-------------------|-----------4---2-x-0-|-4--------2---4--------3-|
|-------------------|-4---------2---0-x---|-2--2--2------2--2--2----|
|-------------------|-2--2-2-2------------|-------------------------|



|-----------------------|-----------------------|-----------------------|
|-----------------------|-----------------------|-----------------------|
|---------4-----------2-|---------4-----------5-|---------4-------------|
|-4-------2---4-------0-|-4-------2---4-------3-|-4-------2---4-----x-2-|
|-2--2--2-----2--2--2---|-2--2--2-----2--2--2---|-2--2--2-----2--0--x-0-|
|-----------------------|-----------------------|-----------------------|
  PM ****        ****        ****        ****        ****        *



|-----------------------|-----------------------|
|-----------------------|-----------------------|
|-----------------------|-----------------------|
|---------4-----------5-|---------4-----------2-|
|-4-------2---4-------3-|-4-------2---4-------0-|
|-2--2--2-----2--2--2---|-2--2--2-----2--2--2---|
  PM ****        ****        ****        ****

|-----------------------|----------------------|
|-----------------------|----------------------|
|-----------------------|----------------------|
|---------4-----------5-|---------4------------|
|-4-------2---4-------3-|-4-------2---4--4-----|
|-2--2--2-----2--2--2---|-2--2--2-----2--2--0--|
  PM ****        ****        ****


 tr~~~~~~~~~~~~~~~~~~~
|--------------|------------------|-----------------------------|
|-12--(15)-----|------15b-r-b-r-b-|-r-b-r(15)p12----(12)-~-~-~--|
|--------------|------------------|-----------------------------|
|--------------|------------------|-----------------------------|
|--------------|------------------|-----------------------------|
|--------------|------------------|-----------------------------|
|                                                               |
|                      _3_                                      |
|--------------|------/---\-------|-----------------------------|
|--------------|------------------|-----------------------------|
|-9------------|-7----------------|-----------------------------|
|-9------------|-7----7-6-5-------|-4--4-4-4--4-4-4--4-4-4--4-4-|
|-7------------|-5----5-4-3-------|-0--2-2-2--2-2-2--2-2-2--2-2-|
|--------------|------------------|-----------------------------|
				      PM ************************

 ~~~~~~~ sl.                          		       AH . . . . . . . .
|--------------------------|-------------------------|----------------------|
|-----(12)\----------------|---7---------------------|----------------------|
|---------------------9b---|------9b---9p7-----7--9--|-9brp7--9brp7--9brp7--|
|--------------------------|----------------9--------|----------------------|
|--------------------------|-------------------------|----------------------|
|--------------------------|-------------------------|----------------------|
|									    |
|								            |
|--------------------------|-------------------------|----------------------|
|--------------------------|-------------------------|----------------------|
|------------------------2-|-------------------------|----------------------|
|-4--4-4-4--4-4-4-----4--0-|-4--4--4-4-4--4-4-4--4-4-|-4--4-4-4--4-4-4------|
|-2--2-2-2--2-2-2--0--2----|-2--2--2-2-2--2-2-2--2-2-|-2--2-2-2--2-2-2--2-2-|
|--------------------------|-------------------------|------------------0-0-|
PM***************            *****************************************
									Ooh, the


2nd Verse
w/Rhy.Fig.3 (1 3/4 times)                              prebend
    sl.						      ~~~~~    sl.
|-------------------------|--------------|-19br-19br-19b------(19)\-|
|-------------------------|----------17--|--------------------------|
|--(7)\-------------------|--------------|--------------------------|
|-------------------------|--------------|--------------------------|
|-------------------------|--------------|--------------------------|
|-------------------------|--------------|--------------------------|

 curse of the pharoahs can be so deadly


                       ~~~~    sl.
|-------------------------------|------------------|-------------------|
|----------14--17br-(17)---(17)\|-x\---------------|-------------------|
|------14-----------------------|------------------|-------------------|
|-/16---------------------------|------------------|---------------/16-|
|-------------------------------|------------------|-------------------|
|-------------------------------|------------------|-------------------|

                        just destroying your future making it all shad-




				      w/Rhy.Fill 1                   w/Rhy.Fig.4
							   ~~~~~    ~~~~~ ~~~ ~~~   ~~
|-17-17-17---------17-17-17--------|-17---------------------------|-----------------|
|----------------------------------|------------------------------|-----------------|
|-14-14-14--14-----14-14-14--14----|-14---14---14-14--------------|-----------------|
|--------------16---------------16-|------14---14-14--16--(16)\/6-|---6---6---6---7-|
|----------------------------------|------------------------------|-----------------|
|----------------------------------|------------------------------|-----------------|

 -y                                 yeah.                           Don't touch,  nev-


 ~~~~~
|--------------------|--------------|--------------------------|
|--------------------|--------------|--------------------------|
|----------------/11-|--11--11--11--|-13--13--13--13--13-------|
|----------------/-9-|---9---9---9--|-11--11--11--11--11-------|
|------9--7--9-------|--------------|--------------------------|
|--------------------|--------------|----------------------x\--|
 -er ever steal,      unless you're  in for the kill (In for the


Chorus
w/Rhy.Fig.5 (2 times)

kill)     Or you'll be hit      by the curse of the pharoahs
	   yes you'll be hit    and the curse is on you.


|-----------|-----------|-----------|-----------||
|-----------|-----------|-----------|-----------||
|--5----4---|--5----7---|--4----5---|--3----4---||
|--5----4---|--5----7---|--4----5---|--3----4---||
|--3----2---|--3----5---|--2----3---|--1----2---||
|-----------|-----------|-----------|-----------||


"A Corpse Without Soul"

 Triplet Feel
 Rhy.Fig.8
|------------------------|--------------------|-----------------------|
|------------------------|--------------------|-----------------------|
|--------------5---------|-7---7--5--7--5-----|--------------5--------|
|------7p5-----5--7p5----|-7---7--5--7--5---6-|-7-----7p5----5--7p5---|
|-0--0------7----------0-|--------------------|-0--0------7---------7-|
|------------------------|--------------------|-----------------------|
PM****                                          ****


   (end Rhy.Fig.8)
|-----------------|------------------------|------------------|
|-----------------|------------------------|------------------|
|----------5--0---|--------------5---------|-7----7--5--7--5--|
|-5--------5--0---|-------7p5----5--7p5----|-7----7--5--7--5--|
|----7--5---------|-0--0------7---------0--|------------------|
|-----------------|------------------------|------------------|
                 PM ****

                                     sl.
|---------------------------------|----------------2-----2--------|
|---------------------------------|----------------3-----3--------|
|-7p5-----5-----------------------|----------------2-----2--------|
|------7-----7p5--7p5-----5-------|----------------0-----0--------|
|----------------------7-----7--5-|-7p5\3--5p3p0---0-----0--------|
|---------------------------------|-------------------------------|





Rhy.Fig.8A  (w/Rhy.Fig.8)
                                        ~~~                             (end Rhy.Fig.8A)
||--------------------------|---------------|-----------------------|------------------||
||-o------------------------|-7--7-5-7-5----|-----------------------|----------------o-||
||-----------------5--------|-7--7-5-7-5----|--------------5--------|------------------||
||-o--------7p5----5--7p5---|---------------|-------7p5----5--7p5---|-5--7p5----5----o-||
||----0--0------7---------0-|---------------|-0--0------7---------7-|--------7--3--5---||
||--------------------------|---------------|-----------------------|--------------3---||
   PM ****                *                   ****


1st Verse
 Rhy.Fig.9								(end Rhy.Fig.9)
|----------------------|----------------------|----------------------|----------------|
|----------------------|----------------------|-------------5--------|----------------|
|-------------5--------|----------------------|-------------5--------|----------------|
|------7p5----5--7p5---|-------7p5---5--7p5---|-------7p5------7p5---|-5--7p5----5----|
|-0--0-----7---------7-|-0--0------7--------7-|-0--0------7--------7-|--------7--3--5-|
|----------------------|----------------------|----------------------|--------------3-|
PM****                   ****                   ****


w/Rhy.Fig.9 (3 times)

I'm a corpse   I'm a corpse  I'm a corpse without soul
Satan    satan     satan     yeah
He's takin'    he's takin'   he's takin' his toll



|--------------|----------------|------------|
|--------------|----------------|------------|
|-7------------|----------------|--5---------|
|-7------------|--------4--4--4-|--5---------|
|-5------------|--------2--2--2-|--3---------|
|--------------|---x\-----------|------------|
                     PM *******
                  He took it out on me

       sl.
|----------||----------------------|----------------------------|
|----------||----------------------|----------------------------|
|---x--7\--||--------------5-------|-10--------12-----12-~--~---|
|---x--7\--||-------7p5----5-------|-10--------12-----12-~--~---|
|---x--5\--||-0--0------7-----0--0-|-----0--0------0------------|
|----------||----------------------|----------------------------|
           PM ****            ****       ****      *


                       steady gliss.
|-----------------------|----------------|-----------------------|
|-----------------------|----------------|-----------------------|
|--------------5--------|-----------5--0-|--------------5--------|
|-------7p5----5--7p5---|-----------5--0-|-------7p5----5--7p5---|
|-0--0------7---------0-|-(10)\\\--------|-0--0------7---------0-|
|-----------------------|-(10)\\\--------|-----------------------|
PM****                *                    *   *


|-------------------|-----------------------|----------------||
|-------------------|-----------------------|----------------||
|-7---7--5--7--5----|--------------5--------|-5--------5-----||
|-7---7--5--7--5--6-|-7-----7p5----5--7p5---|-5--------5--5--||
|-------------------|-0--0------7---------7-|----7--5-----5--||
|-------------------|-----------------------|-------------3--||
                   PM ****





2nd Verse
w/Rhy.Fig.9 (4 times)

I     I      I    yeah
I'm trapped    I'm trapped    I'm trapped in his spell.   To-
night      Tonight    Tonight   yeah
I'm going      I'm going      I'm going to hell


            sl.
|--------|--------------|--------|------------------|------------------|
|--------|--------------|--------|------------------|------------------|
|--7-----|--------------|--5-----|------------------|------------------|
|--7-----|-----4--4--4--|--5-----|-7--5--4--5--4----|-4----------------|
|--5-----|-----2--2--2--|--3-----|-5--3--2--3--2--0-|-2--0-----0--5--4-|
|--------|--x\----------|--------|------------------|-------3-----3--2-|
            PM *******             ***********************************
               inside his spell

Freely
 trem pick                                      ^             sl.
|------------|-----------|-------------------|----------------------|
|-2\\\\\\\\\\|\\\\\\\\\\\|-2--2----2--2----2-|----------------/14---|
|-2----------|-----------|-2--2----2--2----2-|--2-------------------|
|-2----------|-----------|-2--2----2--2----2-|--2-------------------|
|-0----------|-----------|-0--0----0--0----0-|--0-------------------|
|------------|-----------|-------------------|----------------------|


"Into the Coven"

|----------------------|---------------------|------------------------|-----------------|
|-(14)-~--~--~---------|-13---------------13-|-12----(12)--~--~--~--~-|-~--~--~--~--~---|
|----------------12h14-|-----14-~--~--~------|------------------------|-----------------|
|----------------------|---------------------|------------------------|-----------------|
|----------------------|---------------------|------------------------|-----------------|
|----------------------|---------------------|------------------------|-----------------|
|
|                                           ~~~
|----------------------|---------------------|-----------------------|-----------------|
|----------------------|---------------------|-----------------------|-----------------|
|----------------------|-5b----------------5-|-4-------4--------4----|-5--------5---7--|
|-7--------7-------5-7-|----7-----7--------5-|-5-------5--------5----|-3--------5---7--|
|-0--0--0--0--0--0-0-0-|----0--0--0--0--0----|---0--0-----0--0-----0-|----0--0--3---5--|
|----------------------|---------------------|-----------------------|-----------------|
  PM *****    ****             *     ****        ****     ****     *      ****



                    ~~~~~~~~~~~~~sl.          tr~~~~~~~~~~~~~~~~~~~~
|----------------------|---------------------|---------------------|--------------------|
|-13-------------(13)--|---------/17---------|-15-(17)-------------|-(15)------(15)-~-\-|
|----------------------|---------------------|---------------------|--------------------|
|----------------------|---------------------|---------------------|--------------------|
|----------------------|---------------------|---------------------|--------------------|
|----------------------|---------------------|---------------------|--------------------|
|                                                                                       |
|                                                                                       |
|----------------------|---------------------|---------------------|--------------------|
|----------------------|---------------------|---------------------|--------------------|
|----------------------|-5b----------------5-|--4------4-------4\3-|-5---------5----7---|
|-7--------7-------5-7-|----7-----7--------5-|--5------5-------5\4-|-3---------5----7---|
|-0--0--0--0--0--0-0-0-|----0--0--0--0--0----|----0--0---0--0----0-|----0--0---3----5---|
|----------------------|---------------------|---------------------|--------------------|
  PM ****     ****             *     ****         ****   ****    *      ****



Half Time Feel

 Rhy.Fig.10
|------------------------|----------------------|-------------------|------------------|
|------------------------|----------------------|-------------------|------------------|
|------------------------|-5b---------------5-~-|-4------4------4---|-5-------5---7----|
|-7--------7--------5--7-|----7-----7-------5-~-|-5------5------5---|-3-------5---7----|
|-0--0--0--0--0--0--0--0-|----0--0--0--0--0-----|---0--0---0--0---0-|---0--0--3---5----|
|------------------------|----------------------|-------------------|------------------|
  PM ****     ****               *     ****         ****   ****   *     ****

								       	  (end Rhy.Fig.10)
|----------------------|---------------------|---------------------|--------------------|
|----------------------|---------------------|---------------------|--------------------|
|----------------------|-5b----------------5-|--4------4-------4\3-|-5---------5----7---|
|-7--------7-------5-7-|----7-----7--------5-|--5------5-------5\4-|-3---------5----7---|
|-0--0--0--0--0--0-0-0-|----0--0--0--0--0----|----0--0---0--0----0-|----0--0---3----5---|
|----------------------|---------------------|---------------------|--------------------|
  PM ****     ****             *     ****         ****   ****    *      ****


									sl.
|---------------------|------------|----------------------|--------------|
|---------------------|------------|----------------------|--------------|
|-10--7---7---5--7--5-|-7---8---8--|-10--7----7---5--7--5-|-7--8--9--10\-|
|-10--7---7---5--7--5-|-7---8---8--|-10--7----7---5--7--5-|-7--8--9--10\-|
|--8--5---5---3--5--3-|-5---6---6--|--8--5----5---3--5--3-|-5--6--7---8\-|
|---------------------|------------|----------------------|--------------|

1st and 2nd Verses
w/Rhy.Fig.10

Howl      like a wolf     and a witch       will open the door
Follow me,    yeah,  and meet   our high   priestess

Dress      till you're naked      and put on   this white coat
Take this white cross       and go   to the center of the ring.

Chorus

|-------------------------|--------------------|-----------------------|
|-------------------------|--------------------|-----------------------|
|-------------------------|--------------------|-----------------------|
|-------------------------|--------------------|-----------------------|
|-5--4--4--4---4--4--4--4-|-4--4--4--4---4--5--|-5\4--4--4--4--4--4--4-|
|-3--2--2--2---2--2--2--2-|-2--2--2--2---2--3--|-3\2--2--2--2--2--2--2-|
     PM **********************************            ****************
 Yeah                                            come,   come


|-------------------|-------------------------|-------------------|
|-------------------|-------------------------|-------------------|
|-------------------|-------------------------|-------------------|
|-------------------|-------------------------|-------------------|
|-------0--2--3--2--|-5--4--4--4---4--4--4--4-|-4--4--4--4---4--5-|
|-2--3-----------0--|-3--2--2--2---2--2--2--2-|-2--2--2--2---2--3-|
                         PM **********************************
 into my coven,      yeah,


						Guitar Solo w/Rhy.Fig.10
                 To Coda @
|------------------------|------------------||----------------------|
|------------------------|------------------||----------------------|
|------------------------|----2-------2-----||----------------------|
|------------------------|----2-------2---2-||-/7---(7)-~-~-~--5h7--|
|-5\4--4--4---4--4--4--4-|-4--0-------0---2-||----------------------|
|-3\2--2--2---2--2--2--2-|-2------0-------0-||----------------------|
    PM *********************      *
    and   become           Lucifer's child.

    ~~~~~~                       AH
|---------------|---------------------|-------------|----------------------|
|---------------|---------------------|-------------|----------------------|
|-5b--------5-4-|-5-*-7-*-5-*-4-------|-------------|--------------------5-|
|-----7---------|----------------7--5-|-3-2---------|----------------------|
|---------------|---------------------|-----5-3-5-5-|-5br--3---3--5-5/7----|
|---------------|---------------------|-------------|--------5-------------|
                  ^push stg. into pickup w/pick


   ~~~~                  grad. bend
|---------------------|----------5-------------|------------------------||
|-------5--7--7br-----|------------8-5---------|-------------------5-5--||
|-------5--7--7br-5---|-5--7bb-----------7-5---|-5--7--7brp5-------5-5--||
|-7-----------------7-|----------------------7-|-------------7-~-~------||
|---------------------|------------------------|------------------------||
|---------------------|------------------------|------------------------||




@ CODA

|-----------------|---------------|---------------|
|-----------------|---------------|---------------|
|----2------2-----|-5--5--5--5--5-|-5--5--5-------|
|----2------2---2-|-5--5--5--5--5-|-5--5--5--5--4-|
|-4--0------0---2-|-3--3--3--3--3-|-3--3--3--5--4-|
|-2------0------0-|---------------|----------3--2-|


"Evil"

|----------------------------|--------------------------|------------------------|
|----------------------------|--------------------------|------------------------|
|----------------------------|--------------------------|------------------------|
|-2--------------------------|---------------4--5--4--5-|------------------------|
|-2--------------------------|---------------5--7--5--7-|-----(7)\---------------|
|-0--------------------------|--------------------------|------------------------|
|                                                                                |
|                                                        Rhy.Fig.11              |
|----------------------------|--------------------------|------------------------|
|----------------------------|--------------------------|------------------------|
|----------------------------|--------------------------|------------------------|
|-9--x-x--9/12--9--x-x--9/12-|-9--x-x--9/12--7--9--7--9-|-x-x-9/12--9--x-x--9/12-|
|-7--x-x--7/10--7--x-x--7/10-|-7--x-x--7/10--5--7--5--7-|-x-x-7/19--7--x-x--7/10-|
|----------------------------|--------------------------|------------------------|


										~~~
|--------------------------|-------------------------|--------------------------|
|--------------------------|-------------------------|--------------------------|
|--------------------------|-------------------------|--------------------------|
|---------------4--5-------|------9/12--9-------9/12-|-9--x-x--9/12--7--9--7--9-|
|---------------5--7--9--7-|------7/10--7-------7/10-|-7--x-x--7/10--5--7--5--7-|
|--------------------------|-0-0-----------0-0-------|--------------------------|
|                         PM * *           * *                       *******    |
|           (end Rhy.Fig.11)                                                    |
|--------------------------|-------------------------|--------------------------|
|--------------------------|-------------------------|--------------------------|
|--------------------------|-------------------------|--------------------------|
|-9--x-x--9/12--7--9--7--9-|-x-x--9/12--9--x-x--9/12-|-9--x-x--9/12--7--9--7--9-|
|-7--x-x--7/10--5--7--5--7-|-x-x--7/10--7--x-x--7/10-|-7--x-x--7/10--5--7--5--7-|
|--------------------------|-------------------------|--------------------------|
             PM *******                                              *******






 ~~~~
|-----------------------------|--------------------------||
|-----------------------------|--------------------------||
|-----------------------------|--------------------------||
|-----x-x--9/12--9--x-x--9/12-|-9--x-x--9/12--7--9--7--4-||
|-----x-x--7/10--7--x-x--7/10-|-7--x-x--7/10--5--7--5--2-||
|-----------------------------|--------------------------||
                                           PM *******


1st Verse
|---------------------|------------------------|---------------------|
|---------------------|------------------------|---------------------|
|---------------------|------------------------|---------------------|
|---------------------|----------------------7-|-4-------------------|
|-2--2--2--2--2--2--2-|-2--2--2--2--2--0--2--5-|-2--2--2--2--2--2--2-|
|---------------------|------------------------|---------------------|
PM*****************************************         ****************
     I was born in the cemetary                  under the sign of the


|------------------------|---------------------|---------------------------|
|------------------------|---------------------|---------------------------|
|------------------------|---------------------|---------------------------|
|----------------------7-|---------------------|----------------------7----|
|-2--2--2--2--2--0--2--5-|-5-------------------|----------------0--2--5----|
|------------------------|-3--3--3--3--3--3--3-|-3--3--3--3--3-------------|
PM*******************         **************************************
  moon                     raised from my grave               by the dead


|---------------------|------------------------|---------------------|
|---------------------|------------------------|---------------------|
|---------------------|------------------------|---------------------|
|-4-------------------|----------------------7-|-4-------------------|
|-2--2--2--2--2--2--2-|-2--2--2--2--2--0--2--5-|-2--2--2--2--2--2--2-|
|---------------------|------------------------|---------------------|
  PM **************************************         ****************
                                                 And I was made a mer-


|------------------------|---------------------|------------------------|
|------------------------|---------------------|------------------------|
|------------------------|---------------------|------------------------|
|----------------------7-|-4-------------------|----------------------7-|
|-2--2--2--2--2--0--2--5-|-2--2--2--2--2--2--2-|-2--2--2--2--2--0--2--5-|
|------------------------|---------------------|------------------------|
PM*******************         **************************************
 cenary                       in the legions of hell


|---------------------|------------------------|-------------------|
|---------------------|------------------------|-------------------|
|---------------------|------------------------|-------------------|
|---------------------|----------------------7-|-4--------4--2-----|
|-5-------------------|----------------0--2--5-|-2--2--2--2--0---5-|
|-3--3--3--3--3--3--3-|-3--3--3--3--3----------|-----------------3-|
  PM **************************************         ****
     Now I'm king of pain             I'm     i   n   s   a   n   e



                       Guitar Solo w/Rhy.Fig.11 (3 1/2 times)
|----------------------|-----------------------------------------------------------|
|----------------------|-12-15p12-----12---15p12-----12---15p12-----12---15p12-----|
|------------------14b-|----------14b------------14b------------14b------------14b-|
|-------------------9--|-----------------------------------------------------------|
|----------5--4-----7--|-----------------------------------------------------------|
|-3--3--3--3--2--0-----|-----------------------------------------------------------|
		         * with wah as filter


              AH
|-------------------------------------------|----------------------------------------
|-12h15p12-----------12---12-15-15p12-15p12-|-15p12-12-15p12--12-15p12--12-15p12-15b-
|---------15-13-13br----13------------------|---------------15--------15-------------
|-------------------------------------------|----------------------------------------
|-------------------------------------------|----------------------------------------
|-------------------------------------------|----------------------------------------

      hold . . . .								  rake
-------15b-|-------r--15br---12-|-15p12-------12h15p12----------11h14p11----------------|
-15p12-----|----------15br------|-------13-13----------12-11h12----------12-11h12----9h12
-----------|--------------------|--------------------------------------------------10---|
-----------|--------------------|------------------------------------------------12-----|
-----------|--------------------|-------------------------------------------------------|
-----------|--------------------|-------------------------------------------------------|


|-9h12-0-0--10p8h10---10p7-9---9p6-8---|-7---------------------------|
|-------------------8--------6-------5-|---/12--12-----------------5/|
|--------------------------------------|-----------13\  6-6-6--------|
|--------------------------------------|----------------------7------|
|--------------------------------------|-----------------------------|
|--------------------------------------|-----------------------------|


 w/Rhy.Fill 3
        AH
|---------------------------||-------------------------|-----------------------|
|-/21\---.-.-.-.-.-.------5-||-(5)\--------------------|-----------------------|
|-------2b-----2-2-(2)rp0---||-------------------------|-----------------------|
|---------------------------||-------------------------|-----------------------|
|---------------------------||-------------------------|-----------------------|
|---------------------------||-------------------------|-----------------------|
|                                                                              |
|  Rhy.Fill 3          (end)  Rhy.Fig.12                                       |
|---------------------------||-------------------------|-----------------------|
|---------------------------||-------------------------|-----------------------|
|---------------------------||-------------------------|------------------7--5-|
|-9--x-x--9/12---7--9--7--4-||-4--4--------------------|------------------7--5-|
|-7--x-x--7/10---5--7--5--4-||-4--4--4-4-4--4-4-4--4-4-|-4--4-4-4--4-4-4--5--3-|
|-------------------------2-||-2--2--2-2-2--2-2-2--2-2-|-2--2-2-2--2-2-2-------|
              PM *******             ***********************************
                               You  know


|-----------------------------|-----------------------|-----------------------------|
|-----------------------------|-----------------------|-----------------------------|
|-5---------------------------|------------------4--2-|-2---------------------------|
|-5--5-5-5--5-5-5--5-5-5--5-5-|-5--5-5-5--5-5-5--4--2-|-2--2-2-2--2-2-2--2-2-2--2-2-|
|-3--3-3-3--3-3-3--3-3-3--3-3-|-3--3-3-3--3-3-3--2--0-|-0--0-0-0--0-0-0--0-0-0--0-0-|
|-----------------------------|-----------------------|-----------------------------|
  PM ******************************************            ************************
      my    only    p l e a s u r e                         is  to  hear    you


									(end Rhy.Fig.12)
|---------------------------|---------------------------|--------------------------|
|---------------------------|---------------------------|--------------------------|
|------------------4--5--6--|---------------------------|--------------------------|
|-2--2-2-2--2-2-2--4--5--6--|--6-6-6--6-6-6--6-6-6--6-6-|-6--6-6-6--6-6-6--7--8--9-|
|-0--0-0-0--0-0-0--2--3--4--|--4-4-4--4-4-4--4-4-4--4-4-|-4--4-4-4--4-4-4--5--6--7-|
|---------------------------|---------------------------|--------------------------|
PM***************              ************************************************
  c r y






Chorus
 w/Rhy.Fig.11 (3 1/2 times)

I'd     love     to hear you   cry

			w/Rhy.Fill 3
I'd     love     to see you    die

Pre-chorus
 w/Rhy.Fig.12

And I'll be the first         to watch your

funeral.          And I'll be the last    to leave.


Chorus/Guitar Solo
 w/Rhy.Fig.11
                grad.bend
|---------||---------------|-------------------------------------|
|---------||---------------|-------------------------------------|
|---14----||-14--(14)b-----|-14br(14)p12----12-14-b14r--12-12-12-|
|---------||---------------|-------------14----------------------|
|---------||---------------|-------------------------------------|
|---------||---------------|-------------------------------------|
 w/wah trem pick

    ~~~										  ~~
|-------------------------------------------------|--------------------------------12-|
|-------------------------------------------------|-----------------------15b--/14----|
|-------/12--14p12-12-14p12-12-12-14p12--12h14p12-|-12-12-14p12--12-14p12-------------|
|-14--\--------------------------------14---------|------------14---------------------|
|-------------------------------------------------|-----------------------------------|
|-------------------------------------------------|-----------------------------------|


|-16p12--12--15p12p0--15p12p0--15p14p12p0--15p14p12--15p14p12p0--0-|
|------------------------------------------------------------------|
|------------------------------------------------------------------|
|------------------------------------------------------------------|
|------------------------------------------------------------------|
|------------------------------------------------------------------|
									  . . .
|-15p14p12p0--15p14p12p0--15p14p12p0--15p14p12p0--15p12--15p14p12--15b--|
|-----------------------------------------------------------------------|
|-----------------------------------------------------------------------|
|-----------------------------------------------------------------------|
|-----------------------------------------------------------------------|
|-----------------------------------------------------------------------|


. . .									~~~~
|----r-15p14-12---12h14p12-12-12-14-|-15--14-12--12-12-15p12-----------|
|--------------15-------------------|----------15-----------15p12-12---|
|-----------------------------------|------------------------------/14-|
|-----------------------------------|----------------------------------|
|-----------------------------------|----------------------------------|
|-----------------------------------|----------------------------------|
|                                                                      |
|                                                                      |
|-----------------------------------|----------------------------------|
|-----------------------------------|----------------------------------|
|-----------------------------------|----------------------------------|
|-----------------------------------|-9--x-x--9/12----7---9---7--------|
|-----------------------------------|-7--x-x--7/10----5---7---5---7----|
|-----------------------------------|-7--x-x--7/10----5---7---5---5----|
                                                   PM *********




~~~~
|------------------------------------|
|----------12h13---------------12h13-|
|----14-14---------14-14-14-14-------|
|------------------------------------|
|------------------------------------|
|------------------------------------|
|                                    |
|                                    |
|------------------------------------|
|------------------------------------|
|------------------------------------|
|------------------------------------|
|----x--x---7/10---7----x-x----7/10--|
|----x--x---5/8----5----x-x----5/8---|

                                 ~~~
|---------------------------------|----------------------------|-----------------------||
|------------12h13--12-13-13p21---|--------12h13---------12h13-|---------12h13-12-13p12||
|-14-14-14-14------------------14-|14-14-14------14-14-14------|-14-14-14--------------||
|---------------------------------|----------------------------|-----------------------||
|---------------------------------|----------------------------|-----------------------||
|---------------------------------|----------------------------|-----------------------||
|
|
|---------------------------------|----------------------------|-----------------------||
|---------------------------------|----------------------------|-----------------------||
|---------------------------------|----------------------------|-----------------------||
|---------------------------------|----------------------------|---------------------7-||
|-7---x--x---7/10---5--7--5---7---|--x--x--7/10--7--x--x--7/10-|-7--x-x--7/10--5-7-5-7-||
|-5---x--x---5/8----3--5--3---5---|--x--x--5/8---5--x--x--5/8--|-5--x-x--5/8---3-5-3-5-||
                PM  *******                                                     *****


Bridge

 A5 G5 A5  D5  C5      G5   E  F5  C5  A5 G5 A5  D5 C5   G5      F5    A5
    ~~~~~~~~~
|--------------------|---------------|----------------|------------------|
|--------------------|---------------|----------------|------------------|
|-14---------(14)\\\-|---------------|----------------|------------------|
|--------------------|---------------|----------------|------------------|
|--------------------|---------------|----------------|------------------|
|--------------------|---------------|----------------|------------------|
                       And when you're down beyond the ground

     G5  A5    D5    C5      E   F5  C5  A5   G5  A5    D5  C5 G5    F5  A5
I'll dig up   your  b o d y  again       and make love  to   shame

A5  G5 A5 D5 C5   E  F5   C5   A5  G5 A5   D5  C5  G5  F5   A5
Woh,   lady  c  r  y            and   say  goodbye  (goodbye)


Oh,  lady   c r y               and   say goodbye____


 Rhy.Fig.13                                                           (end Rhy.Fig.13)
|-----------------|---------------------|-----------------------------|--------------|
|-----------------|---------------------|-----------------------------|--------------|
|------------5----|---------------------|-7--7---x-x-x-x-5--5--x-x--3-|-(3)----7--5--|
|-3--3-------5----|-7--7---x--x--7--7-7-|-----------------------------|--------7--5--|
|-3--3----5--3--5-|-7--7---x--x--7--7-7-|-5--5---x-x-x-x-3--3--x-x--1-|-(1)----5--3--|
|-1--1----3-----3-|-5--5---x--x--5--5-5-|-----------------------------|--------------|


w/Rhy.Fig.13

 Yeah!  Cause I will eat your mind.


Guitar Solo
w/Rhy.Fig.13 (3 3/4 times)

|--------------------|-------------------------|------------------------------|
|--------------------|-------------------------|-----------------------10h11/-|
|-12b-12b-12b--12-10-|-9-10-10p9----9--------9-|-10-9h10p9----9-10-12---------|
|--------------------|-----------12---12b-~----|-----------12-----------------|
|--------------------|-------------------------|------------------------------|
|--------------------|-------------------------|------------------------------|


|----------------------------|--------10----------------------|--------------------|
|-/13\11-10------------------|-----10----10-11-10h11p10----10-|-13b--13b--13b--13b-|
|-----------10--10-~-~-(10)\-|-/12----------------------12----|--------------------|
|----------------------------|--------------------------------|--------------------|
|----------------------------|--------------------------------|--------------------|
|----------------------------|--------------------------------|--------------------|


|-----------------------|-----------------------|---------------------------|
|-13-11-10-----10----10-|-----------------------|---------13--12/13-13--12/-|
|----------12-----12----|-12br-10h12-10-~-(10)\-|--13/14--14--13/14-14--13/-|
|-----------------------|-----------------------|---------------------------|
|-----------------------|-----------------------|---------------------------|
|-----------------------|-----------------------|---------------------------|


|---------------------------|-----10-----------10--10-13-|-10-12p10-10------------------
|/13-13-12/13-13-----/10-10-|-13b----13p10-13b---13------|------------13-11-10-10h11p10-
|/14-14-13/14-14--14\-------|----------------------------|--------------------12--------
|---------------------------|----------------------------|------------------------------
|---------------------------|----------------------------|------------------------------
|---------------------------|----------------------------|------------------------------


|---------------------------------|-----------------------|---------------------------|
|-10-13-10br----10----------------|-----------------------|---------------------------|
|------------12----12-10----10-12-|-12br-10-12-12p10-~-10-|-12-12br-10-9-10-9h10p9----|
|------------------------12-------|-----------------------|------------------------12-|
|---------------------------------|-----------------------|---------------------------|
|---------------------------------|-----------------------|---------------------------|


|------------------|-----------------||----------------|
|------------------|-----------------||----------------|
|-9---------10--9--|--(9)-~-~-~-~-~--||----------------|
|----10--12--------|-----------------||----------------|
|------------------|-----------------||----------------|
|------------------|-----------------||----------------|
|                                                      |
|                                                      |
|------------------|-----------------||----------------|
|------------------|-----------------||----------------|
|------------------|--2--------------||--------------3-|
|----------------5-|--2--------------||--5-------3---3-|
|----------------5-|--0--------------||--5-------3---1-|
|----------------3-|-----------------||--3-------1-----|


|-------------------|-----------------|-------------------|
|-------------------|-----------------|-------------------|
|-----------------3-|---------------3-|-------------5---8-|
|-------------3---3-|-----------3---3-|-------------3---8-|
|-------------3---1-|-----------3---1-|-------------3---6-|
|-------------1-----|-----------1-----|-------------------|


|----------------|----------------|----------------|
|----------------|----------------|----------------|
|----------------|----------------|----------------|
|-8-----8--6---8-|-------8--6---8-|-------8--6---8-|
|-8-----8--6---8-|-------8--6---8-|-------8--6---8-|
|-6-----6--4---6-|-------6--4---6-|-------6--4---6-|


                      gradual bend                         AH    AH
|------------------||--------------------------------------------------|
|------------------||----.-.-.-.-.-.-.-.-.-.-.-.-.-.-.-.-.-.-.-.-.-.-.-|
|------------------||-10b-10-10-10-10-10-10-10-10-10-10-10-10-10-10-10-|
|-------8---6---10-||--------------------------------------------------|
|-------6---6---10-||--------------------------------------------------|
|-------6---4----8-||--------------------------------------------------|


  AH    AH    AH    AH    AH    AH                    hold bend
|------------------------------------------------------|
|-.-.-.-.-.-.-.-.-.-.-.-.-.-.-.-.-.-------------------.|
|-10-10-10-10-10-10-10-10-10-10-10-10b-10b-10b-10b-10b-|
|------------------------------------------------------|
|------------------------------------------------------|
|------------------------------------------------------|


w/Rhy.Fig.14                       AH~~~~~~
|------------------------------------------|
|-.-.--------------------------------------|
|--(10)p8----8-10p8--------------8-8-------|
|---------10--------10-8----8-10-----------|
|------------------------10----------------|
|------------------------------------------|


     ~~~ AH
|------------------------------------|-8---x-8---x-8---10---x-10---x--10-|
|------------------------------------|-8---x-8---x-8---10---x-10---x--10-|
|--------8--10-10p8------------------|-8---x-8---x-8---10---x-10---x--10-|
|-8-10--------------10-8-10-10-10-10-|-----------------------------------|
|------------------------------------|-----------------------------------|
|------------------------------------|-----------------------------------|



|-11---x--11---x--11--10--x--10--x--10-|-8---x--8---x--8--10--x--10--------|
|-11---x--11---x--11--10--x--10--x--10-|-8---x--8---x--8--10--x--10--------|
|-11---x--11---x--11--10--x--10--x--10-|-8---x--8---x--8--10--x--10--10-10-|
|--------------------------------------|-----------------------------------|
|--------------------------------------|-----------------------------------|
|--------------------------------------|-----------------------------------|


				    Satan's Fall - Outro
                                   w/Rhy.Fig.1 (2 times)
|-------8--------8---------------||-||--------------------||----------|||
|-----8--------8-----------------||-||-o----------------o-||----------|||
|-10b------10b------10b--/16--14-||-||--------------------||----------|||
|--------------------------------||-||-o16~~~~~~~~~~~~~-o-||-4--4\----||| end
|--------------------------------||-||--------------------||-4--4\----|||
|--------------------------------||-||--------------------||-2--2\----|||
  development and support by
dmitry ivanov