rock
 
|tablatures   |lyrics   |discussion forums   |more tabs @ XGuitar.com

Metallica tabs

Mama Said bass tab

Song Title: Mama Said
Artist: Metallica
----------------------------------------------

Mama Said
by Metallica
From the album "Load"


Verse:
G--|---------------------------------------------------|
D--|--0--0-0-0--0-0-0--0-0-0---------------------------|
A--|--------------------------3-3-3--3--0--0-0--0-0-0--|
E--|---------------------------------------------------|


Chorus: (Let my heart go...)               x3
G--|-----------------------------------------|
D--|--0--------------------------------------|
A--|-----3--0--------------------------------|
E--|-----------3--3-3--3-3-3--3--3-3--3-3-3--|

(So let this heart be still)
G--|-----------------|
D--|--0--------------|
A--|-----3--1-----0--|
E--|-----------3-----|


Bridge: (never I ask of you...)                          x4
G--|-------------------------------------------------------|
D--|--0--0-0-----------------------------------------------|
A--|---------------------------3--3-3-3-3------------------|
E--|----------3--3-3--3-3-3-3-------------1--1-1--1-1-1-1--|

(So let this heart be still)
G--|-----------------|
D--|--0--------------|
A--|-----3--1-----0--|
E--|-----------3-----|


That's it... pretty simple, just following the roots.
You also play the verse part during the solo.


Jerome Melancon
n.riopel@sympatico.ca

Submitted by:  Jerome Melancon (n.riopel@sympatico.ca)
  development and support by
dmitry ivanov