rock
 
|tablatures   |lyrics   |discussion forums   |more tabs @ XGuitar.com

Metallica tabs

Low Man's Lyric bass tab

Metallica
Low Man's Lyric
written by Hetfield and Ulrich
as performed on ReLoad
tab by Phil Boyle; ibzrg470@apk.net


tune all guitars down 1/2 step

guitar and hurdy gurdy intro

1)
Gb--------------------------------------------------
Db--------------------------------------------------
Ab------------------------------------------3-3-3--2
Eb--5--3-0--0-0--3-5--5-5--3-0--3-5--3-3-3----------
"The trash fire was warm"


2)
Gb----------------------------
Db----------------------------
Ab--2-2-2-2-0-2-3-2//7//10//12
Eb----------------------------
"Please forgive me"


3)
Gb----------------------------------------------------
Db----------------------------------------------------
Ab----------------------------5-5-5-5-5-5-------------
Eb--5-5-5-5-5-5--3-3-3-3-3-3---------------0-0-0-3-3-3
"My eyes seek reality."


4)
Gb----------------------
Db----------------------
Ab--0---0---------------
Eb----3---2--1-1-1-1-1-1
"So low the sky is all I see."
  development and support by
dmitry ivanov