rock
 
|tablatures   |lyrics   |discussion forums   |more tabs @ XGuitar.com

Metallica tabs

Linus And Lucy bass tab

Metallica
Linus and Lucy (The Peanuts Theme)
written by Vince Guaraldi
as performed in Gothenburg Sweden 2/13/87
tab by Phil Boyle; phil@encycmet.com
special thanks to Tim Meyers


G----------------------------------------------------
D----------------------------------------------------
A----------------------------------------------------
E--0-2-3-0-2-3--0-3-5-0-3-5--0-2-3-0-2-3--0-3-5-0-3-5

G--------------------------
D------2-----2--2---2------
A--2-5---2-5------5---5-3-2
E--------------------------

G-------------------------
D-------------------------
A--0-0-0-2-2-----0-0-0-2-2
E-------------------------
  development and support by
dmitry ivanov