rock
 
|tablatures   |lyrics   |discussion forums   |more tabs @ XGuitar.com

Metallica tabs

Jump In The Fire bass tab

                     JUMP IN THE FIRE
                     ----------------

176 bpm
fig.1
|---------|---------|---------|-----------|---------|----------|
|---------|---------|---------|-R----R----|---------|----------|
|---------|---------|---------|---3----1--|---------|-1-1-1-1/-|
|-3-3-3-3-|-1-1-1-1-|-0-0-0-0-|-----------|-3-3-3-3-|----------|
  q q q q   q q q q   q q q q   e q. e q.   q q q q   q q q q
  . . . .   etc.

|-----------------|-----------|---------|---------|---------|-----------|
|-----------------|------R----|---------|---------|---------|-R----R----|
|-/8-8-0-8-8-0-8\-|-0-3----1--|---------|---------|---------|---3----1--|
|-----------------|-----------|-3-3-3-3-|-1-1-1-1-|-0-0-0-0-|-----------|
   e e e e e e q    e q. e q.   q q q q   q q q q   q q q q   e q. e q.

                                  end fig.1
|---------|---------|---------|-----------||
|---------|---------|---------|-R----R----||
|---------|-1-1-1-1-|---------|---3----1--||
|-3-3-3-3-|---------|-1-1-1-1-|-----------||
  q q q q   q q q q   q q q q   e q. e q.

fig.2                                             end fig.2  2 times
||-----------------|-----------|---------------|----------------||
||-o---------------|-----------|---------------|--------------o-||
||-o-------------1-|-(1)-------|-------------3-|-(3)-3-3-3-4--o-||
||---1-3-3-1-3-0---|-----1-1-1-|-1-3-3-1-3-0---|----------------||
     e e e e e e q   (q) q q q   e e e e e e q   (q) e e e q.

Verse 1,2
||--                                                     |
||-o  play fig.2  3 times, play first two bars of fig.2  |
||-o                                                     |
||--                                                     |

 fill 1-----------------| Chorus
|---------------|-------||               --||
|---------------|-R-----||  play fig. 1  o-||
|-------------3-|---4-4-||               o-||
|-1-3-3-1-3-0---|-------||               --||
  e e e e e e q   h q q

Interlude & Guitar solo                                  8 times
||-----------------|-----------|---------------|-------------||
||-o---------------|-----------|---------------|-----------o-||
||-o---------------|-----------|---------------|-----------o-||
||---6-6-6-6-6-6-6-|-6-6-6-4-6-|-3-3-3-3-3-3-3-|-3-3-3-1-3---||
     e e e e q e e   e e q q q   e e e e q e e   e e q q q

Verse 3 : play fig.2  3 times, play first two bars of fig.2, play fill 1
Chorus 3 : play fig.1  2 times

Outro : play fig.2  10 times and fade


Lyrics :
 1. Down in the depths of my firey home, the summons bell will chime
    Tempting you and all the earth to join our sinful kind
    There's a job to be done and I'm the one, you people make me do it
    Now it's time for your fate and I won't hesitate to you down into
      this pit.

 Chorus :
   So come on !
   Jump in the fire !
   So come on !
   Jump in the fire

 2. With Hell in my eyes and with death in my veins the end is closing in
    Feeding on the minds of men and from their souls within
    My disciples all shout to search you out and they always shall obey
    Follow me now, my child, not the meck or the mild, but do just as I say

 Chorus

 3. Jump by your will or be taken by force, I'll get you either way
    Trying to keep the hellfire lit, I'm stalking you as prey
    Living your life as me, I am as you see. There's part of me in everyone
    So, reach down, grab my hand, walk with me through the land, come home
      where you belong

 Chorus :
    So come on !
    Jump in the fire !
    So come on !
    Jump in the fire !
    So come on !
    Jump in the fire !
    So come on !
    Jump in the fire !
    Come on, jump, baby, now !
  development and support by
dmitry ivanov