rock
 
|tablatures   |lyrics   |discussion forums   |more tabs @ XGuitar.com

Metallica tabs

Invisible Kid bass tab

Invisible Kid - Metallica
Submitted By: james	
EMail: darkmosher@hotmail.com
metallica kick so much ass an i couldnt find this song anywhere so i tabbed it myself. took me a while. plz rate this
Tuning: FCGC

Intro
F|------------------
C|------------------
G|------------------
C|--3-0--0-0-0-0-0--

F|------------
C|------------
G|------------
C|--3-3-5-0---

Lars Hits The Drums Twice Right Before Going Into The Verse
F|-------
C|-------
G|-------
C|--3--3-

Verse
F|--------------------------------------------------------
C|--------------------------------------------------------
G|--------------------------------------------------------
C|--3-3-5-0--0-3-0-3-0-5-0--0-3-0-3-0-5-0--0-3-0-8-8-10-8-

Little Interlude
F|---------------------------------------------------
C|---------------------------------------------------
G|---------------------------------------------------
C|--4-0--3-4-5-4-0--3-4-5-4-0--3-4-5-4-0--3-4-5-4-0--

Verse
F|--------------------------------------------------------
C|--------------------------------------------------------
G|--------------------------------------------------------
C|--3-3-5-0--0-3-0-3-0-5-0--0-3-0-3-0-5-0--0-3-0-8-8-10-8-

Little Interlude
F|---------------------------------------------------
C|---------------------------------------------------
G|---------------------------------------------------
C|--4-0--3-4-5-4-0--3-4-5-4-0--3-4-5-4-0--3-4-5-4-0--

The Part Where James Sings "Im OK just go away....."
F|------------------------------------------------------------
C|------------------------------------------------------------
G|-------------------------------------------------------2-3-3
C|--0-0-0-0-1-2-2--0-0-0-0-1-2-2--0-0-0-0-1-2-2--0-0-0-1------

Then
F|-----------------------------
C|-----------------------------
G|-----------------------------
C|-0--0-1-2-3-5-0--0-1-2-3-5-0-

Lars Hits The Drums Twice Right Before Going Into The Verse
F|-------
C|-------
G|-------
C|--3--3-

Verse
F|--------------------------------------------------------
C|--------------------------------------------------------
G|--------------------------------------------------------
C|--3-3-5-0--0-3-0-3-0-5-0--0-3-0-3-0-5-0--0-3-0-8-8-10-8-

Little Interlude
F|---------------------------------------------------
C|---------------------------------------------------
G|---------------------------------------------------
C|--4-0--3-4-5-4-0--3-4-5-4-0--3-4-5-4-0--3-4-5-4-0--

The Part Where James Sings "Im OK just go away....."
F|------------------------------------------------------------
C|------------------------------------------------------------
G|-------------------------------------------------------2-3-3
C|--0-0-0-0-1-2-2--0-0-0-0-1-2-2--0-0-0-0-1-2-2--0-0-0-1------

Then
F|-----------------------------
C|-----------------------------
G|-----------------------------
C|-0--0-1-2-3-5-0--0-1-2-3-5-0-

Then
F|------------
C|------------
G|------------
C|--3-3-5-0---

Then
F|-----------------------
C|-----------------------
G|-----------------------
C|--7--5-7--5-7--5-8-8-8-

Then
F|------------
C|------------
G|------------
C|--3-3-5-0---

Intro
F|------------------
C|------------------
G|------------------
C|--3-0--0-0-0-0-0--

F|------------
C|------------
G|------------
C|--3-3-5-0---

Guitar Solo

Verse
F|--------------------------------------------------------
C|--------------------------------------------------------
G|--------------------------------------------------------
C|--3-3-5-0--0-3-0-3-0-5-0--0-3-0-3-0-5-0--0-3-0-8-8-10-8-

The Part After That When James Sings "I hurt inside i hide inside but ill show you.."
F|-----------------------------
C|-----------------------------
G|-----------------------------
C|-0--0-1-2-3-5-0--0-1-2-3-5-0-

Then
F|-----------------------------
C|-----------------------------
G|-----------------------------
C|-0--0-1-2-3-5-0--0-1-2-3-5-0-

Then
F|-----------------------------
C|-----------------------------
G|-----------------------------
C|-0--0-1-2-3-5-0--0-1-2-3-5-0-

Then
F|-----------------------------------------
C|-----------------------------------------
G|-------------------------------------2-3-
C|--1-0-1-1-1--1-0-1-1-1--1-0-1-1-1--1-----

End Note
F|-----------------
C|-----------------
G|-----------------
C|------1~~~~------
  development and support by
dmitry ivanov