rock
 
|tablatures   |lyrics   |discussion forums   |more tabs @ XGuitar.com

Metallica tabs

Frantic guitar tab

FRANTIC
As recorded by Metallica
(From the 2003 Album ST. ANGER)

Transcribed by www.mikesguitarsite.co.uk
Words and Music by James Hetfield, Lars Ulrich, Kirk Hammett & Bob Rock

Gtr I (C G C F A D) - 'James Hetfield - Rhythm w/dist'
Gtr II (C G C F A D) - 'Kirk Hammett - Rhythm w/dist'
Gtr III (C G C F A D) - 'James Hetfield - Rhythm clean electric (Gtr I)'
Gtr IV (C G C F A D) - 'Kirk Hammett - Rhythm clean electric (Gtr II)'
Gtr V (C G C F A D) - 'Kirk Hammett - Rhythm w/dist'

Intro
    Q=168
   4/4
    Gtr I
                                              PM----|    PM--------|
    H               E E Q   8x      E    S  S S S S S  E S S S S S S  8x
||--------------------------||-||-------------------------------------||
||o------------------------o||-||o-----------------------------------o||
||--------------------------||-||-------------------------------------||
||--------------------------||-||-------------------------------------||
||o-------------------0----o||-||o-----------------------------------o||
||--------------------0-----||-||--18---15s12-0-0-0-0-17-0-0-0-0-0-0--||
|
|   Gtr II
|   PM--------------|
|   S S S S S S S S E E Q   8x
||--------------------------||
||o------------------------o||
||--------------------------||- w/Riff A x8
||--------------------------||
||o------------------------o||
||--0-0-0-0-0-0-0-0-0-------||
 |-Riff A        end Riff A-|


    Gtrs I, II
             PM----|    PM--------|
     E  S  S S S S S  E S S S S S S  8x
||-----------------------------------||
||o---------------------------------o||
||-----------------------------------||
||-----------------------------------||
||o---------------------------------o||
||--18-15s12-0-0-0-0-17-0-0-0-0-0-0--||


 Gtr III
             ~~~~~~~                 PM--------|
     E  E E  E  +E   Q   E  3x  E  E E E E E E E
||--------------------------||--------------------|
||o------------------------o||--------------------|
||--------------------------||--------------------|
||--------------------------||--------------------|
||o------------------------o||--------------------|
||--18-15-0-17-(17)-17--17--||-18-15-0-0-0-0-0-0--|
 |-Riff B                              end Riff B-| (includes repeats)

    Gtrs I, II
    Riff B x4


   Verses
        PM--------|       PM--------|
    E E E E E E E E   E E E E E E E E
||------------------|-----------------|
||o-----------------|-----------------|
||------------------|-----------------|
||------------------|-----------------|
||o-6s3-------------|-6s3-------------|
||--6s3-0-0-0-0-0-0-|-6s3-0-0-0-0-0-0-|
 |-Rhy Fig 1            end Rhy Fig 1-|


 Rhy Fig 1

 w/Rhy Fig 1 x2
  Gtr I
      PM--------|       PM--------|       PM--------|       PM
  E E E E E E E E   E E E E E E E E   E E E E E E E E   E E E E H
|-----------------|-----------------|-----------------|------------------|
|-----------------|-----------------|-----------------|------------------|
|-----------------|-----------------|-----------------|------------------|
|-----------------|-----------------|-----------------|------------------|
|-6s3-------------|-6s3-------------|-6s3-------------|-6s3--------------|
|-6s3-0-0-0-0-0-0-|-6s3-0-0-0-0-0-0-|-6s3-0-0-0-0-0-0-|-6s3-0-0-2/-------|
                                                      |-Rhy Fill 1     --|


   PM--------------------------------------
   E  E  E E E E E E    E  E  E E E E E E
|--------------------|--------------------|
|--------------------|--------------------|
|--------------------|--------------------|
|-10-10-10-9-9-9-9-9-|-10-10-10-9-9-9-9-9-|
|--8--8--8-7-7-7-7-7-|--8--8--8-7-7-7-7-7-|
|-10-10-10-9-9-9-9-9-|-10-10-10-9-9-9-9-9-|
|
|  PM--------------------------------------
|  E  E  E E E E E E    E  E  E E E E E E
|--------------------|--------------------|
|--------------------|--------------------|
|--------------------|--------------------|
|--------------------|--------------------|
|--3--3--3-2-2-2-2-2-|--3--3--3-2-2-2-2-2-|
|--3--3--3-2-2-2-2-2-|--3--3--3-2-2-2-2-2-|


 ----------------------------|
   E  E  E E E E E E    E  E  E E  Q   Q
|--------------------|--------------------|
|--------------------|--------------------|
|--------------------|--------------------|
|-10-10-10-9-9-9-9-9-|-10-10-10-9--9---9--|
|--8--8--8-7-7-7-7-7-|--8--8--8-7--7---7--|
|-10-10-10-9-9-9-9-9-|-10-10-10-9--9---9--|
|
|-------------------------------|
|  E  E  E E E E E E    E  E  E E +Q   Q
|--------------------|--------------------|
|--------------------|--------------------|
|--------------------|--------------------|
|--------------------|--------------------|
|--3--3--3-2-2-2-2-2-|--3--3--3-2-(2)--2--|
|--3--3--3-2-2-2-2-2-|--3--3--3-2-(2)--2--|


Rhy Fig 1 x2 (Gtr I substitutes Rhy Fill 1 for last bar)


Gtr III - Riff B (1st 2 bars)

Gtrs I, II - Riff B (1st 2 bars)

Gtr III - Riff B (1st 2 bars)

Gtrs I, II - Riff A x4

 Pre-Chorus
  $
  Gtr III
                     ~~~~~~~~~~~
   Q.      E  +Q     Q      +W
|------------------------|--------------------|
|------------------------|--------------------|
|-13------10-(10)---12---|-(12)---------------|
|------------------------|--------------------|
|------------------------|--------------------|
|------------------------|--------------------|
|-Riff C1
|
| Gtr IV
|  E  E E  E   E  E  E E     E  E E E E E E E
|------------------------|--------------------|
|-------0---------0------|--------0-----0-----|
|-----0--------0-------0-|------0-----0-----0-|
|--6-------3---------5---|---6------3-----5---|
|------------------------|--------------------|
|------------------------|--------------------|
|-Riff C                           end Riff C-|

w/Riff C x3
                     ~~~~~~~~~~~
   Q.      E  +Q     Q      +W
|------------------------|--------------------|
|------------------------|--------------------|
|-13------10-(10)---12---|-(12)---------------|
|------------------------|--------------------|
|------------------------|--------------------|
|------------------------|--------------------|


                        ~~
   Q.      E  Q   Q     H.           +Q
|---------------------|---------------------|
|---------------------|---------------------|
|---------------------|---------------------|
|-12------10-10---9s==|=5------------(5)/---|
|---------------------|---------------------|
|---------------------|---------------------|


                        ~
   Q.      E  Q   Q     W
|---------------------|-----------------|
|---------------------|-----------------|
|---------------------|-----------------|
|-12------10-10---9s==|=5---------------|
|---------------------|-----------------|
|---------------------|-----------------|
                            end Riff C1-|

Riff C1 + Riff C x4


 Chorus
  Gtrs I, II
                   PM--|                    PM--|
   E  E  E  E  +E  E E E    E  E  E  E  +E  E E E
|------------------------|------------------------|
|------------------------|------------------------|
|------------------------|------------------------|
|------------------------|------------------------|
|------------------------|------------------------|
|-18-18-15-17-(17)-0-0-0-|-18-18-15-17-(17)-0-0-0-|
|-Riff D                               end Riff D-|

                   PM--|
   E  E  E  E  +E  E E E    E  E  E  E  +E   E  Q
|------------------------|-------------------------|
|------------------------|-------------------------|
|------------------------|-------------------------|
|------------------------|-------------------------|
|------------------------|-------------------------|
|-18-18-15-17-(17)-0-0-0-|-18-18-15-17-(17)-17s12--|


Riff D

                          1.
                  To Coda
                   PM--|
   E  E  E  E  +E  E E E    E  E  E  E  +E   E  Q
|------------------------|-------------------------|
|------------------------|-------------------------|
|------------------------|-------------------------|
|------------------------|-------------------------|
|------------------------|-------------------------|
|-18-18-15-17-(17)-0-0-0-|-18-18-15-17-(17)-17s12--|


Riff D x1.5

                        2.
        PM--------|
   E  E E E E E E E       E  E  E  E  +E   E  Q
|--------------------||----------------------------||
|-------------------o||----------------------------||
|--------------------||----------------------------||
|--------------------||----------------------------||
|-------------------o||----------------------------||
|-18-15-0-0-0-0-0-0--||--18-18-15-17-(17)-17s12----||


   Interlude
    Gtrs I, II
            PM----|     PM--------|           PM----|     PM--------|
    S S S S S S S S S S S S S S S S   S S S S S S S S S S S S S S S S   6x
||----------------------------------|-----------------------------------||
||o---------------------------------|----------------------------------o||
||----------------------------------|-----------------------------------||
||--6p0-3p0---------5p0-------------|-6p0-3p0---------5p0---------------||
||o---------------------------------|----------------------------------o||
||----------0-0-0-0-----0-0-0-0-0-0-|---------0-0-0-0-----0-0-0-0-0-0---||
 |-Riff E                                                    end Riff E-|

   Bridge
	 w/Riff E x6
    Gtr II
              PM----|      PM--------|             PM----|      PM--------|
     S S  S S S S S S  S S S S S S S S    S S  S S S S S S  S S S S S S S S   6x
||-------------------------------------|--------------------------------------||
||o------------------------------------|-------------------------------------o||
||-------------------------------------|--------------------------------------||
||--18p0-15p0-0-0-0-0-17p0-0-0-0-0-0-0-|-18p0-15p0-0-0-0-0-17p0-0-0-0-0-0-0---||
||o------------------------------------|-------------------------------------o||
||-------------------------------------|--------------------------------------||


Riff E x2 + Riff A x4


Riff A x2

w/Riff A
  PM--------------|        PM----------------------------|
  S S S S S S S S E E Q    S S S S S S S S S S S S S S S S
|------------------------|------------------------------------|
|------------------------|------------------------------------|
|------------------------|------------------------------------|
|------------------------|------------------------------------|
|------------------------|------------------------------------|
|-0-0-0-0-0-0-0-0-0------|-0-0-0-0-0-0-0-0-0-0-0-0-0-0-0-0----|
|-Riff G                                           end Riff G-|

Riff A x2

Riff A x2 + Riff G -> D.S. al Coda


                             Outro
                          Slower Q=128
  &
                             3/4
  Gtrs I, II
                              PM|        PM|
   E  E  E  E  +E   E  Q      E E H      E E H
|-------------------------||-----------|-----------||
|-------------------------||o----------|----------o||
|-------------------------||-----------|-----------||
|-------------------------||-----------|-----------||
|-------------------------||o-0-0------|-0-0------o||
|-18-18-15-17-(17)-17s12--||--0-0------|-0-0-------||
                           |-Rhy Fig 2           --|

w/Rhy Fig 2 x2
    Gtrs I, V
                           ~~~~~                         ~~~~~
    E  S  S  +S   S  S  S  E  E   E  S  S  +S   S  S  S  E  E
||------------------------------|-----------------------------|
||o-----------------------------|-----------------------------|
||------------------------------|-----------------------------|
||------------------------------|-----------------------------|
||o-----------------------------|-----------------------------|
||--0-12-12-(12)-12-12p10-12-12-|-0-12-12-(12)-12-12p10-12-12-|


                         ~~~~~                               ~~
  E  S  S  +S   S  S  S  E  E   E  S  S  +S   S  S  S  E  S  S     Q  H
|-----------------------------|---------------------------------||---------*|
|-----------------------------|--------------------------------o||---------*|
|-----------------------------|---------------------------------||---------*|
|-----------------------------|---------------------------------||---------*|
|-----------------------------|--------------------------10----o||---------*|
|-0-12-12-(12)-12-12p10-12-12-|-0-12-12-(12)p10-12p10-12----12--||-0-------*|
  development and support by
dmitry ivanov