rock
 
|tablatures   |lyrics   |discussion forums   |more tabs @ XGuitar.com

Metallica tabs

Frantic bass tab

song: frantic
artist: metallica
Tabbed by: Edo
Bassist : robert trujillo
In the 5th time of the intro the bass enter
G|--------------------------------------------|
C|--------------------------------------------| play this part X 8
G|-----------------------------5-------------|
C|---0-0-0-0-0-0-0-0-0-----------------|

G|-------------------------------------------|
C|-------------------------------------------| X 12
G|-------------------------------------------|
C|--6--3--0-0--5-0-0--------------------|

james play 3 times and the bass enter in the 4th time

|------------------------------------|                  \\
|------------------------------------|                   \\
|---11--8---------10-10--------|                     \\
|--------------12------------------|                      \\
                                                              \\
|------------------------------------|                       /      play all this parts X 2
|------------------------------------|                      /
|---11--8---------10-10--------|                      /
|--------------12------------------|                     /
                                                           /
|------------------------------------|                  /
|------------------------------------|                 /
|---11--8----------10-10--------|                /
|--------------12------------------|                /
                                                      /
|-------------------------------------------|       /
|-------------------------------------------|      /
|---11--8---------------------------------|     /
|--------------12-12-12-12-12-12---|    /

|----------------------------|
|----------------------------|
|----------------------------|
|--6--3--0----5-5----5--|

|----------------------------|
|----------------------------|
|----------------------------|
|--6--3--0----5-5----5--|

|----------------------------|
|----------------------------|
|----------------------------|
|--6--3--0----5-5----5--|

|----------------------------|
|----------------------------|
|----------------------------|
|--6--3--0-0-0-0-0-0---| repeat this 4 parts X 2

|-------------------------------------------|
|-------------------------------------------|
|-------------------------------------------|
|-6-0-0-0-0-0-0-3-0-0-0-0-0-0-0--|

|-------------------------------------------|
|-------------------------------------------|
|-------------------------------------------|
|-6-0-0-0-0-0-0-3-0-0-0-0-0-0-0--|

|-------------------------------------------|
|-------------------------------------------|
|-------------------------------------------|
|-6-0-0-0-0-0-0-3-0-0-0-0-0-0-0--|

|-------------------------------------------|
|-------------------------------------------|
|-------------------------------------------|
|-6-0-0-0-0-0-0-3-0-0-0-0-0-0-0--|

|-------------------------------------------------|
|-------------------------------------------------|
|-------------------------------------------------|
|-6-6-6-6-5-5-5-5--6-6-6-6-5-5-5-5----|

|-------------------------------------------------|
|-------------------------------------------------|
|-------------------------------------------------|
|-6-6-6-6-5-5-5-5--6-6-6-6-5-5-5-5----|

|-------------------------------------------|
|-------------------------------------------|
|-------------------------------------------|
|-6-0-0-0-0-0-0-3-0-0-0-0-0-0-0--|

|-------------------------------------------|
|-------------------------------------------|
|-------------------------------------------|
|-6-0-0-0-0-0-0-3-0-0-0-0-0-0-0--|

You live it or lie it

|------------------------------------|
|------------------------------------|
|---11--8---------10-10--------|
|--------------12------------------|

|------------------------------------|
|------------------------------------|
|---11--8---------10-10--------|
|--------------12------------------|

My lifestyle determines my deathstyle

|-----------------|        \\
|-----------------|         \\     X 4
|-----------------|         /
|-0-0-0-0-0---|        /

Keep searching

|------------------------|    \\
|------------------------|     \\    X 8
|------------------------|     /
|-5-5-5-5-5-5-5-6--|    /

during the frantic-tic-tic-tic-tic-toc the bass its in silence

continue with this

|------------------------------------|                  \\
|------------------------------------|                   \\
|---11--8---------10-10--------|                     \\
|--------------12------------------|                      \\
                                                              \\
|------------------------------------|                       /      play all this parts X 2
|------------------------------------|                      /
|---11--8---------10-10--------|                      /
|--------------12------------------|                     /
                                                           /
|------------------------------------|                  /
|------------------------------------|                 /
|---11--8----------10-10--------|                /
|--------------12------------------|                /
                                                      /
|-------------------------------------------|       /
|-------------------------------------------|      /
|---11--8---------------------------------|     /
|--------------12-12-12-12-12-12---|    /

|-------------------------------------------|
|-------------------------------------------|
|-------------------------------------------|
|-6-0-0-0-0-0-0-3-0-0-0-0-0-0-0--|

|-------------------------------------------|
|-------------------------------------------|
|-------------------------------------------|
|-6-0-0-0-0-0-0-3-0-0-0-0-0-0-0--|

|-------------------------------------------|
|-------------------------------------------|
|-------------------------------------------|
|-6-0-0-0-0-0-0-3-0-0-0-0-0-0-0--|

|-------------------------------------------|
|-------------------------------------------|
|-------------------------------------------|
|-6-0-0-0-0-0-0-3-0-0-0-0-0-0-0--|

|-------------------------------------------------|
|-------------------------------------------------|
|-------------------------------------------------|
|-6-6-6-6-5-5-5-5--6-6-6-6-5-5-5-5----|

|-------------------------------------------------|
|-------------------------------------------------|
|-------------------------------------------------|
|-6-6-6-6-5-5-5-5--6-6-6-6-5-5-5-5----|

|-------------------------------------------|
|-------------------------------------------|
|-------------------------------------------|
|-6-0-0-0-0-0-0-3-0-0-0-0-0-0-0--|

|-------------------------------------------|
|-------------------------------------------|
|-------------------------------------------|
|-6-0-0-0-0-0-0-3-0-0-0-0-0-0-0--|

You live it or lie it

|------------------------------------|
|------------------------------------|
|---11--8---------10-10--------|
|--------------12------------------|

|------------------------------------|
|------------------------------------|
|---11--8---------10-10--------|
|--------------12------------------|

My lifestyle determines my deathstyle

|-----------------|        \\
|-----------------|         \\     X 4
|-----------------|         /
|-0-0-0-0-0---|        /

Keep searching

|------------------------|    \\
|------------------------|     \\    X 8
|------------------------|     /
|-5-5-5-5-5-5-5-6--|    /

|------|--------------------------|
|------|--------------------------|    X 4
|------|--------------------------|
|--0--|--0--0--0-0-0-0-------|

|-----------------------------|    \\
|-----------------------------|     \\   X 12
|-----------------------------|     /
|-6h3--0-0--5--0-0-0---|    /

|--------------------------------------------|
|--------------------------------------------| play this part X 4
|-----------------------------5-------------|
|---0-0-0-0-0-0-0-0-0-----------------|

|-----------------|        \\
|-----------------|         \\     X 8
|-----------------|         /
|-0-0-0-0-0---|        /

Keep searching

|------------------------|    \\
|------------------------|     \\    X 8
|------------------------|     /
|-5-5-5-5-5-5-5-6--|    /

Frantic-tic-tic-tic-tic-tic-tic-tic-toc
this is the end
|-------|
|-------|  X 8
|-------|
| 0-0--|

|-------------------------------|
|-------------------------------| X8 at the end make this    G|-----|
|-5-5-5-5-----5-3-5-6-----|                                       C|-0--|
|-------------------------------|
  development and support by
dmitry ivanov