rock
 
|tablatures   |lyrics   |discussion forums   |more tabs @ XGuitar.com

Metallica tabs

Four Horsemen guitar tab

From: wbajzek@dialip-48.mr.net
Subject: Metallica - The Four Horsemen


I'll tab up the riffs, but you have to listen to the song for timing.

intro

g --5-----7--5----------------------------------------------------------
d --5--5--7--5----------------------------------------------------------
a --3--5--5--3----------------------------------------------------------
e -----3----------------------------------------------------------------

a --5--7--5--7--5--7--5--7--5--7--5--7--5-------------------------------
e --0--0--0--0--0--0--0--0--0--0--0--0--0--7----------------------------

d -----------------------------------------7p-5-------------------------
a --5--7--5--7--5--7--5--7--5--7--5-----5--------7p-5-------------------
e --0--0--0--0--0--0--0--0--0--0--0--7----------------------------------

a --5--7--5--7--5--7--5--7--5--7--5--7--5-----5-------------------------
e --0--0--0--0--0--0--0--0--0--0--0--0--0--7--0-------------------------

g --5-----7--5----------------------------------------------------------
d --5--5--7--5----------------------------------------------------------
a --3--5--5--3----------------------------------------------------------
e -----3----------------------------------------------------------------

verse

d -----------9-----------9-----------9--7--7----------------------------
a -----------7-----------7-----------7--5--5----------------------------
e --0--0--0-----0--0--0-----0--0--0-------------------------------------

d -----------9-----------9-----------9--5--7----------------------------
a -----------7-----------7-----------7--3--5----------------------------
e --0--0--0-----0--0--0-----0--0--0-------------------------------------

d -----------9-----------9-----------9--12--9---------------------------
a -----------7-----------7-----------7--10--7---------------------------
e --0--0--0-----0--0--0-----0--0--0-------------------------------------

g --5-----7--5----------------------------------------------------------
d --5--5--7--5----------------------------------------------------------
a --3--5--5--3----------------------------------------------------------
e -----3----------------------------------------------------------------

chorus ( I'm not sure about this. Please correct it.)

g --9--9--9s--7--7--7s--5--5--5s--4---pickslide-------------------------
d --9--9--9s--7--7--7s--5--5--5s--4---pickslide-------------------------
a --7--7--7s--5--5--5s--3--3--3s--2---pickslide-------------------------

g --9--9--9s--7--7--7s--5--5--5s--4--4--5-------------------------------
d --9--9--9s--7--7--7s--5--5--5s--4--4--5--5----------------------------
a --7--7--7s--5--5--5s--3--3--3s--2--2--3--5----------------------------
e -----------------------------------------3----------------------------

bridge

e --0--0--0--0--0-------------------------------------------------------

g -----------------5s--4--4--------------------5------------------------
d -----------------3s--2--2--------------------3------------------------
a ----------------------------------------------------------------------
e --0--0--0--0--0---------------0--0--0--0--0---------------------------

a --7--5-----5--------------------------7--5-----5----------------------
[C[
C
e --------7-----7--6--5--3--5--0--3--5--------7-----7--6-5--------------

d --5--6--7-------------------------------------------------------------
a --3--4--5--------------8--7--5--7-------------------------------------
e -----------0--0--5--7--------------0--0-------------------------------

d --5--6--7-------------------------------------------------------------
a --3--4--5-------------------------------------------------------------
e -----------0--0--0--0--0--0--0--0--0--0-------------------------------

a --7--5-----5----------------------------------------------------------
e --------7-----7--6--5--3--5--0--3--5----------------------------------

1st solo

d --------9--------------7--------------9--------------7----------------
a --7--7-----7--7--5--5-----5--5----------------------------------------
e --------------------------------8--8-----8--8--7--7-----7--7----------

I don't remember how the little part after this goes. The rest of the song
uses riffs that I already tabbed, so I'm done.

Bill



Four Horsemen from Kill Em All by Metallica


this is what I was able to figure out of the solo based on my small
knowledge of pentatonic scales.  If somebody knows more, please email me.

^ = bend whole step

e|-------------------------15^----12-15-14|
b|-15^--15^--15^-12-15^-------------------|
g|----------------------------------------|
d|----------------------------------------|
a|----------------------------------------|
e|----------------------------------------|


e|------------------------------------------------|
b|-12--------14---12----------15-14-12------------| I don't know what
g|----14-12----------14-12-12----------14-12.....-| comes after this
d|------------------------------------------------|
a|------------------------------------------------|
e|------------------------------------------------|


kornboy
BOBkornboy@aol.com
  development and support by
dmitry ivanov