rock
 
|tablatures   |lyrics   |discussion forums   |more tabs @ XGuitar.com

Metallica tabs

Fight Fire With Fire bass tab

Metallica
Fight Fire With Fire
written by Hetfield and Ulrich
as performed on Ride the Lightning


Intro:(Pretty hard)Moderate speed
-------------9--10--9/10/9--------------------------
-9--10--12-----------------12--10/9-----------------
----------------------------------------------------
--------------------------------------12--10/12--10-

-------------9--10--9/10/9---------------------------
-----10--12-----------------12--10/9--9--9-----------
-10-----------------------------------------12-------
-----------------------------------------------------

-------------9--10--9/10/9---------------------------
-----10--12-----------------12--10/9------5----------
-10---------------------------------0--0-------------
------------------------------------------3----------

-------------9--10--9/10/9------------------------14--12------------------
-----10--12-----------------12--10/9----------10----------15--14----------
-10---------------------------------------10------------------------------
--------------------------------------12--------------------------------0-
                                                               hold

rest 3&3/4 measures(15 beats)
Fast Rock
-----------------------------------------------------
-----------------------------------------------------
-----------------------------------------------------
-3-R-2-R-3-R-2-R-2-R-3-R-2-R-3-R-2-R-1---------------



SPEED PICK!(VERY FAST)
------------------------------------------------------------------
------------------------------------------------------------------
------------------------------------------------------------------REPEAT
ONCE
-0000003-0000002-0000003-002-002-0000003-0000002-0000003-002--001-

-------------------------------------------------------
-------------------------------------------------------
-------------------------------------------------------REPEAT TWICE
-0-3-50003-00-2-3-0-3-5000-2--2------------------------

ALMOST THE SAME AS ABOVE BUT THER ISN'T ANOTHER AT THE END:
------------------------------------------------------
------------------------------------------------------
------------------------------------------------------
-0-3-50003-00-2---------------------------------------

CHORUS:
-----------------------------------------------------------------------
-----------------------------------------------------------------------
----------1--2--1--1-11111111111111-----------1--2--1--1-11111111111111
-0--3--0-----------------------------0--3--0---------------------------
 ...Fight fire w/ fire               Ending is near

------------------------------------------------------------------------
------------------------------------------------------------------------
----------1--2--1--1-11111111111111-----------1--2--1--1----------------
-0--3--0-----------------------------0--3--0----------------------------
Fight fire w/ fire                   Bursting w/ fear...

-------------------------------------------------------5---------------
-------------------------------------------------3/5/7----7--5----------
-1--R---5--3--2--0----------------------0--2--3-----------------2-----0-
-------------------------------------3-----------------------------3----
                 hold 1 1/2 measures

Guitar Solo
-------------------------------------------------------------
-------------------------------------------------------------
-------------------------------------------------------------Repeat this
line 2 times
-0-00-00-0-00-00--------------------------------------------

-----------------------------------------------------------------
-----------------------------------------------------------------
-------------------------0-00-00-0-00-00-0-00-00-----------------
-0-00-00-0-00-00-0-00-00-------------------------3-33-33-3-33-33-

-----------------------------------------------------------------
-----------------------------------------------------------------
-----------------------------------------------------------------repeat
last 2 lines 2xs
-2-22-22-2-22-22-0-00-00-0-00-00---------------------------------


---------------------------------------------------------------------------------
---------------------------------------------------------------------------------
-------------------------0-00-00-0-00-00-0-00-00---------------------------------
-0-00-00-0-00-00-0-00-00-------------------------3-33-33-3-33-33-2-22-22-2-22-22-

----------------------------------------------------------
----------------------------------------------------------
---------------------------------------------------------- repeat last 2
lines
-0-2--3-0-2--3-0-2--3-0-2--3--0-2--3-0-2--3-0-2--3-0-2--3-


-------------------------------------------------------------
-------------------------------------------------------------
-------------------------------------------------------------
-0-----------------------------------------------------------
 hold for 4 measures

rest 8 measures

--------------------------------
--------------------------------
-1-11111111111111---------------
--------------------------------

--------------------------------
--------------------------------
-------1-2-1-------------------- 16 times
-0-3-0--------------------------

----------------------------------------
----------------------------------------
-1-R----------------7-7-7-7--7-7-7-7--7-
-----0----------------------------------
     hold 1 measure


That's all.  I did this really fast, but it's straight out of the book.


No space = speed picking
/ = slide
  development and support by
dmitry ivanov