rock
 
|tablatures   |lyrics   |discussion forums   |more tabs @ XGuitar.com

Metallica tabs

Enter Sandman bass tab

Metallica Bass Tab
Enter Sandman
By Paul (send corrections please)
wacka_smacka@hotmail.com

Intro.(When the drums come in)

|-------------------------------------------|
|-------------------------------------------|
|-------------------------------------------|
|-0-0-0-0-0-0-0-0-0-0-0-0-0-0-0-0-0| etc.

First bridge bit(bridge bit, bit after intro)

|----------------------|
|----------------------|
|------------------/7--|
|-0-0-0-0-0-0-0----|

Second bridge bit

|---------------------|
|---------------------|
|-------/7-----------|
|--0-0---6-0-0-0-1|

Third damn bridge bit

|-----------------------|
|-----------------------|
|-----/7----------------|
|-0-0-6-5-0-0-0-0-|

Cool main riff

|-----------------------|  times 3
|-----------------------|
|--------/7-------------|
|-0--0-----6-5--------|

then:

|-----------------------|
|-----------------------|
|-----------------------|
|-3-0-2-0-2-3-2-0-|

Verse

|-----------------------------------------------------------------------------|
|-----------------------------------------------------------------------------|
|-----------------------------------------------------------------------------|
|-0-0-0-0-0-0-0-1-0-0-0-0-0-0-0-1-0-0-0-0-0-0-3-0-2-0-2-3-2-0|
Say your prayers…

pre-chorus

|------------------------------------------|
|------------------------------------------|
|---------2--------2---------2---------2-|_
|-2---------2---------2--------2---------|
Sleep with one eye open..

Chorus
|-----------------------------------------------------------------------------------------------------------|
|------4-------------4-------------4--------------------------------------4------------------------(rest)-|
|---------3-2----------3-2-----------3-2-------------------2--------------3-2---------------------------|
|-2--------------2------------2-------------0-----3-0-5-0---3------2-----------0----3-0-3-0-5-0--------|
                                             (improvisation crap)                   (improvisation crap)

Other prechorus.
|--------------------------------|
|--------------------------------|
|--------------------------------|
|-2-2-2-2-2-2-2-2-2-2-2 etc.|
Hush little baby…

"This is note a quote"
                                -Quote man
  development and support by
dmitry ivanov