rock
 
|tablatures   |lyrics   |discussion forums   |more tabs @ XGuitar.com

Metallica tabs

Dirty Window bass tab

Metallica "Dirty Window" St. Anger
Bassist: Bob Rock
(for new Metal by old bassist Jason Newsted visit www.voivod.com!!)

Tabbed by baronradon86

Drop D Tuning, down 1 step

Rest, (guitar drum intro)

Intro, when guitar enters with main riff:
F|-----------|-------------|
C|-----------|-------------|
G|-----------|-------------|
C|-----12\\-0-|---------12\\-|

F|------------------|-----------------|
C|------------------|-----------------|
G|------------------|----------5------|
C|-0---3-5--0---3-5-|-0---3-5-----6-5-| x3

F|-------------|--------------|
C|-------------|--------------|
G|-------------|--------------|
C|-3-------(3)-|-3/5------(5)-|

Verse

F|-------------------|-----------------|
C|*------------------|-----------------|
G|*------------------|----------5------|
C|--0---3-5--0---3-5-|-0---3-5-----6-5-| x4

F|-------------|------------|
C|-------------|------------|
G|-------------|------------|
C|-3-------(3)-|-3/5-----(5)|

F|------------------|-----------------|
C|------------------|-----------------|
G|------------------|----------5------|
C|-0---3-5--0---3-5-|-0---3-5-----6-5-| x2 (play staccato)

F|-------------|------------------|
C|-------------|------------------|
G|-------------|------------------|
C|-0—-3-5—0----|-0--3-5-(5)b1/2---| x3

F|-----------|------------------|-----------|---------------|
C|-----------|------------------|-----------|---------------|
G|-----------|------------------|-----------|---------------|
C|-3--6-8-3--|-3--6-8-(8)b1/2-\\-|-3--6-8-3--|-3--6-8-3--6-8-|

F|------------------|-----------------|
C|------------------|-----------------|
G|------------------|----------5------|
C|-0---3-5--0---3-5-|-0---3-5-----6-5-| x2

Bass tacet during "I’m judge and I’m jury…" 7 measures

"Projector…"
F|-----------|-----------|--------------|-----------|
C|-----------|-----------|--------------|-----------|
G|-----------|-----------|--------5-----|-----------|
C|-0--3-5-0--|-0--3-5-0--|-0--3-5---6-5-|-0--3-5-0--|

F|-----------|-----------|--------------|--------------|
C|-----------|-----------|--------------|--------------|
G|-----------|-----------|--------5-----|--------5-----|
C|-0--3-5-0--|-0--3-5-0--|-0--3-5---6-5-|-0--3-5---6-5-|

Tacet 2 measures

Repeat verse

Tacet for 8 measures, then join guitars and drums with:

F|---------------|
C|---------------|
G|---------------|
C|-0000-0—0-00-0-| x10

F|------------------|-----------------|
C|------------------|-----------------|
G|------------------|----------5------|
C|-0---3-5--0---3-5-|-0---3-5-----6-5-| x2

Tacet for "judge & jury part.." 7 measures

Projector…

F|-----------|-----------|--------------|-----------|
C|-----------|-----------|--------------|-----------|
G|-----------|-----------|--------5-----|-----------|
C|-0--3-5-0--|-0--3-5-0--|-0--3-5---6-5-|-0--3-5-0--|

F|-----------|-----------|--------------|--------------|
C|-----------|-----------|--------------|--------------|
G|-----------|-----------|--------5-----|--------5-----|
C|-0--3-5-0--|-0--3-5-0--|-0--3-5---6-5-|-0--3-5---6-5-|

Tacet 2

F|---------------|
C|---------------|
G|---------------|
C|-0000-0—0-00-0-| x12

F|---------------|
C|---------------|
G|---------------|
C|-0--2-3-0--1-3-| x8
  development and support by
dmitry ivanov